PrimaNota.ru - самый крупный в мире бесплатный архив песенных текстов, аккордов, табулатур и нот


Scott Matthew - Language - таба, видео

Регистрация Запомнить меня
Войти через:  Facebook Google Twitter Vk Yandex Mail.ru

Scott Matthew - Language - таба, видео

Печатать
Просмотров: 85
      Artist: Scott Matthew
  Song Title: Language
       Album: Shortbus Soundtrack (2007)
   Tabbed By: Cinthia G



Intro
|-------3---1---1-----|-------3---1---0h1p0--|
|-------1---0---0-----|-------1---0---0------|
|-----0---0---0---0---|-----0---0---0--------|
|---------------------|----------------------|
|---3-----------------|---3------------------|
|---------------------|----------------------|



|-------3---1---1-----|-------3---1---1-----|
|-------1---0---0-----|-------1---0---0-----|
|-----0---0---0---0---|-----0---0---0---0---|
|---------------------|---------------------|
|---3-----------------|---3-----------------|
|---------------------|---------------------| x5
Memory's a secret handshake, shakes you with
It speaks my language


|-------0-------0-----|-------1-----|-------1-----|
|-------2-------2-----|-------3-----|-------3-----|
|-----0---0---0---0---|-----2---0---|-----0---0---|
|---------------------|---0---------|-------------|
|---0-------0---------|-------------|-------------|
|---------------------|-------------|---3---------|
It ceases, I cease to believe you're gonna leave


|-------3---1---1-----|-------3---1---1-----|
|-------1---0---0-----|-------1---0---0-----|
|-----0---0---0---0---|-----0---0---0---0---|
|---------------------|---------------------|
|---3-----------------|---3-----------------|
|---------------------|---------------------| x3
And acting out a fight when you're not around


|------0-------0----|------1---------1----|------1---------1----|------0--|
|------2-------2----|------3---------3----|------3---------3----|-----1---|
|----0---0---0---0--|----2---0-----0---0--|----2---0-----0---0--|----0----|
|-------------------|--0------------------|--0------------------|---------|
|--0-------0--------|---------------------|---------------------|--3------|
|-------------------|-----------3---------|-----------3---------|---------|
With ease, I cease to exist. I slip through the leaves, we once had a wish


Oh we wished for...


 F                Fm                C                  A     Dm    G7
|---1-1-1-1------|---1-1-1-1------|---0-0-0-0------|---0-----1-----1---|
|---1-1-1-1------|---1-1-1-1------|---1-1-1-1------|---2-----3-----0---|
|---2-2-2-2------|---1-1-1-1------|---0-0-0-0------|---2-----2-----0---|
|---3-3-3-3------|---3-3-3-3------|---2-2-2-2------|---2-----0-----0---|
|---3-3-3-3------|---3-3-3-3------|---3-3-3-3------|---0-----------2---|
|---1-1-1-1--x2--|---1-1-1-1--x2--|---0-0-0-0--x2--|---------------3---|
Heaven. It only seems like torture



|-------3---1---1-----|-------3---1---1-----|
|-------1---0---0-----|-------1---0---0-----|
|-----0---0---0---0---|-----0---0---0---0---|
|---------------------|---------------------|
|---3-----------------|---3-----------------|
|---------------------|---------------------|
Oh this ghost will win my host it's lingering


|-------0-------0-----|-------1---------1-----|-------1---------1-----|-------3---1---1---|
|-------2-------2-----|-------3---------3-----|-------3---------3-----|-------1---0---0---|
|-----0---0---0---0---|-----2---0-----0---0---|-----2---0-----0---0---|-----0---0---0-----|
|---------------------|---0-------------------|---0-------------------|-------------------|
|---0-------0---------|-----------------------|-----------------------|---3---------------|
|---------------------|------------3----------|------------3----------|-------------------|
In me and around my neck it taps on my head while I'm asleep



|-------3---1---1-----|-------3---1---1-----|
|-------1---0---0-----|-------1---0---0-----|
|-----0---0---0---0---|-----0---0---0---0---|
|---------------------|---------------------|
|---3-----------------|---3-----------------|
|---------------------|---------------------|
Memory's a secret handshake, shakes you with speaks my language


|-------0-------0-----|-------1---------1-----|-------3---1---1-----|-------3---1---1-----|
|-------2-------2-----|-------3---------3-----|-------1---0---0-----|-------1---0---0-----|
|-----2---2---2---0---|-----2---0-----0---0---|-----0---0---0---0---|-----0---0---0---0---|
|---------------------|---0-------------------|---------------------|---------------------|
|---0-------0---------|-----------------------|---3-----------------|---3-----------------|
|---------------------|------------3----------|---------------------|---------------------|
Cease, I cease to believe you're gonna leave



|-------3---1---1-----|-------3---1---1---1---1---|
|-------1---0---0-----|-------1---0---0---0---0---|
|-----0---0---0---0---|-----0---0---0---0---0-----|
|---------------------|---------------------------|
|---3-----------------|---3-----------------------|
|---------------------|---------------------------|
Добавлено: 09.07.2013
Другие материалы по этой песне:

Страница создана 05.03.2012
http://primanota.ru/scott-matthew/language-chords.htm
Привет, Гость.
Предлагаем пройти революционный курс по гитаре.
Подарок от PrimaNota.Ru, забирай!