PrimaNota.ru - самый крупный в мире бесплатный архив песенных текстов, аккордов, табулатур и нот


Scott Mallone - What We Are Made Of - аккорды и текст, видео

Регистрация Запомнить меня
Войти через:  Facebook Google Twitter Vk Yandex Mail.ru

Scott Mallone - What We Are Made Of - аккорды и текст, видео

Печатать
Просмотров: 182
Уроки эстрадного вокала в Санкт-Петербурге
What We Are Made Of
Scott Mallone
http://www.myspace.com/scottmallone

this tab should be approved because it is in the movie Step Up 3 which is a big movie 
and plenty of people like this song and would probably like to learn it.

Tuning: Eb-Ab-Db-Gb-Bb-Eb

Chords:

     E     C#m       B       A        Ab

E|---0-------0-------0-------0------------------|
B|---9-------5-------4-------0------------------|
G|---9-------6-------4-------6--------5---------|
D|---9-------6-------4-------7--------6---------|
A|---7-------4-------2-------7--------6---------|
E|---------------------------5--------4---------|

You can also play the E and A like this

     E       A

E|---0-------0--------------|
B|---0-------2--------------|
G|---1-------2--------------|
D|---2-------2--------------|
A|---2-------0--------------|
E|---0----------------------|

Intro: E, C#m, B


E             C#m       B           E, C#m, B
In time i will show you Im not leaving

E             C#m       B           E, C#m, B
That i will wait right here for your love

E             C#m  B                E, C#m, B
God knows           what we are made of

E             C#m  B                E, C#m, B
God knows           what were afraid of

            A            Ab
And if you cry, i will comfort you

C#m,  E              B
I               will save you

C#m,  E              B
I               will sacrifice my life

C#m,  E              B
I               will love you

    C#m             A       Ab        E, 
C#m, B  E, C#m, B
For who you are not who you used to be


E              C#m      B                E, C#m, B
In time i will show you Im still believing

E             C#m  B                A             Ab
God knows              that if you call, i would come to you

C#m,  E               B
I                will save you

C#m,  E               B
I                will sacrifice my life

C#m,  E               B
I                will love you

    C#m              A      Ab
For who you are not who you used to be

Bridge:

Lead:
E|---------------------------------------------|
B|---------------------------------------------|
G|-------4------4------4-----------------------|
D|---2------2------2------2---4h6---4~---------|
A|---------------------------------------------|
E|---------------------------------------------|



Rhythm Chords During Lead:
E              C#m             B
E              C#m             B
E              C#m             B
E              C#m             B


E         C#m       B           E, C#m, B
No matter where you are ill be with you

E         C#m       B           E, C#m, B
No matter who you are ill be with you

E         C#m       B           E, C#m, B
No matter where you are ill protect you

E         C#m       B           E
No matter who you are i will love you
Добавлено: 20.06.2012
Другие материалы по этой песне:
  • Аккорды и текст

Страница создана 20.06.2012
http://primanota.ru/scott-mallone/what-we-are-made-of-chords.htm
Привет, Гость.
Предлагаем пройти революционный курс по гитаре.
Подарок от PrimaNota.Ru, забирай!