PrimaNota.ru - самый крупный в мире бесплатный архив песенных текстов, аккордов, табулатур и нот


Scorpions - We Will Burn The Sky - таба, видео

Регистрация Запомнить меня
Войти через:  Facebook Google Twitter Vk Yandex Mail.ru

Scorpions - We Will Burn The Sky - таба, видео

Печатать
Просмотров: 180
Intro/ Versos
E|-----------------------------------------------------|
B|-----9-----------12-----------5------------4---------|
G|-------9-----------11-----------4------------3-------|
D|--6------6----9------9----2--------2----1-------1----|
A|-----------------------------------------------------|
E|-----------------------------------------------------|
                                                   
E|------------------------------------------------------|
B|-----9----------12-------------5-----------7----------|
G|-------8-----------11------------4-----------6--------|
D|--6------6----9--------9----2------2----4------4------|
A|------------------------------------------------------|
E|------------------------------------------------------|

I'm in love with the sunshine,
I'm in love with the falling rain,
Everything seems to call your name..
Yesterday you were leaving,
Leaving life and all the pain,
Everything..

"Wants you back again..."
E|---------------------------------------------------|
B|----9------------12-------------5-----------7------|
G|-------8------------11------------4-----------6----|
D|--6------6----9--------9----2-------2----4---------|
A|---------------------------------------------------|
E|---------------------------------------------------|


Refrão
E|-------------------------------------------------|
B|-------------------------------------------------|
G|-------------------------------------------------|
D|--6--6--6--6-6---6--6--6-4----4-4--4-4-----------|
A|--6--6--6--6-6---6--6--6-4----4-4--4-4-----------|
E|--4--4--4--4-4---4--4--4-2----2-2--2-2-----------|

I've found myself through you,
And there was love in my life,
I felt always naturally high 
And my love had a home,
But now my mind has started to roam..
You're my life giving fire 
And you carried all my love
Through you I was so inspired
You're engraved deep in my..

"Heart..."
E|---------------|
B|---------------|
G|------1---3----|
D|--6---2---4----|
A|--6---2---4----|
E|--4---0---2----| 


Versos
E|-----------------------------------------------------|
B|-----9-----------12-----------5------------4---------|
G|-------9-----------11-----------4------------3-------|
D|--6------6----9------9----2--------2----1-------1----|
A|-----------------------------------------------------|
E|-----------------------------------------------------|
                                                   
E|------------------------------------------------------|
B|-----9----------12-------------5-----------7----------|
G|-------8-----------11------------4-----------6--------|
D|--6------6----9--------9----2------2----4------4------|
A|------------------------------------------------------|
E|------------------------------------------------------|

My dreams recall us being one
I've searched for you to be free
My force of life you have always been
I Feel blue since you've gone
Your breath of love surrounded me
When can I...

"Rejoin you to be free..."
E|---------------------------------------------------|
B|----9------------12-------------5-----------7------|
G|-------8------------11------------4-----------6----|
D|--6------6----9--------9----2-------2----4---------|
A|---------------------------------------------------|
E|---------------------------------------------------|


Refrão
E|-------------------------------------------------|
B|-------------------------------------------------|
G|-------------------------------------------------|
D|--6--6--6--6-6---6--6--6-4----4-4--4-4-----------|
A|--6--6--6--6-6---6--6--6-4----4-4--4-4-----------|
E|--4--4--4--4-4---4--4--4-2----2-2--2-2-----------|

Wait, can this be a dream
There is a voice in my head
It belongs to you, it say's
Don't cry, no need to be sad
There's a way to stay with you again
It's more than we ever had
And no death brings us apart
Our timeless love always grows
Because you are my other..

"Heart..."
E|---------------|
B|---------------|
G|------1---3----|
D|--6---2---4----|
A|--6---2---4----|
E|--4---0---2----| 

                   G#
I know we've never been apart
                    F#
Your love sets fire to my heart
               G#
We'll burn the sky
          F#
When it's time for me to..

"Die.. We'll burn the sky..." (Final)
E|-------------------------------------------------|
B|-------------------------------------------------|
G|-------------------------------------------------|
D|--6--6--6--6-6---6--6--6-4----4-4--4-4-----------|
A|--6--6--6--6-6---6--6--6-4----4-4--4-4-----------|
E|--4--4--4--4-4---4--4--4-2----2-2--2-2-----------|

---------------------
Thanks to JLS Org.© 2015 to chordify the song.
Добавлено: 15.12.2015
Другие материалы по этой песне:
  • Аккорды и текст

Страница создана 15.12.2015
http://primanota.ru/scorpions/we-will-burn-sky-chords.htm
Привет, Гость.
Предлагаем пройти революционный курс по гитаре.
Подарок от PrimaNota.Ru, забирай!