PrimaNota.ru - самый крупный в мире бесплатный архив песенных текстов, аккордов, табулатур и нот


Scorpions - No Pain No Gain - аккорды и текст, таба, видео

Регистрация Запомнить меня
Войти через:  Facebook Google Twitter Vk Yandex Mail.ru

Scorpions - No Pain No Gain - аккорды и текст, таба, видео

Печатать
Просмотров: 888
Уроки эстрадного вокала в Санкт-Петербурге
No Pain No Gain
Scorpions
intro (repeat many times)
E|----------------------------------------------------------|
B|----------------------------------------------------------|
G|9-9-9-9-9-9------5-5-5-x-5------7-7-7-7-7-7-----9-9-9-x-9-|
D|9-9-9-9-9-9------5-5-5-x-5------7-7-7-7-7-7-----9-9-9-x-9-|
A|7-7-7-7-7-7------3-3-3-x-3------5-5-5-5-5-5-----7-7-7-x-7-|
E|----------------------------------------------------------|
 
verse

E|-------------------------------------|
B|-------------------------------------|
G|-9---------7---------------7---------|
D|-9---------7-w/ volume ------7-again-|
A|-7---------5-----knob-------5--------|
E|-------------------------------------|

prechorus (The weak will fall, the strong remain)
          guitar 2
E|---------------------------|
B|--------------------H------|
G|------5-----4-------2-dive-|
D|-5----5-----4--------------|
A|-5----3-----2--------------|
E|-3-------------------------|

presolo

E|-----------------------|
B|-----------------------|
G|-----------------------|
D|-----------------------|
A|8-10--8-10--8-10--3--5-|
E|6--8--6--8--6--8--1--3-|

solo rhythm play intro

end of song play intro
Добавлено: 22.02.2014
Другие материалы по этой песне:

Страница создана 12.05.2012
http://primanota.ru/scorpions/no-pain-no-gain-chords.htm
Привет, Гость.
Предлагаем пройти революционный курс по гитаре.
Подарок от PrimaNota.Ru, забирай!