PrimaNota.ru - самый крупный в мире бесплатный архив песенных текстов, аккордов, табулатур и нот


Scorpions - Love Em Or Lose Em - таба, видео

Регистрация Запомнить меня
Войти через:  Facebook Google Twitter Vk Yandex Mail.ru

Scorpions - Love Em Or Lose Em - таба, видео

Печатать
Просмотров: 226
Song: Love 'em or Lose 'em
Artist: The Scorpions

Tabbed by: Dane-O (Suezo140@hotmail.com)

I love this song by the Scorpions, and couldn't
find tab for it anywhere.

First off, I must say that the tab is incomplete.
However, the main parts of the song are there,
and most of the bridges are simple variations.

For those of you interested, the key signature
in this song is C minor. Hope that helps.

Tuning is Drop C: CGCFAD

Intro

D ---------------
A ---------------
F ---------------
C ---------------
G ---------------
C -0-3-0-2--0-10-


Main Riff

D -----------------------------
A -----------------------------
F -----------------------------
C -0-0-3-0-10--0-0-3-0-8-7-5-3-
G -0-0-3-0-10--0-0-3-0-8-7-5-3-
C -0-0-3-0-10--0-0-3-0-8-7-5-3-

Verse

D -----
A -----
F -----
C -3-3-
G -3-3-
C -3-3-
     
Добавлено: 13.07.2013
Другие материалы по этой песне:
  • Аккорды и текст

Страница создана 13.07.2013
http://primanota.ru/scorpions/love-em-or-lose-em-chords.htm
Привет, Гость.
Предлагаем пройти революционный курс по гитаре.
Подарок от PrimaNota.Ru, забирай!