PrimaNota.ru - самый крупный в мире бесплатный архив песенных текстов, аккордов, табулатур и нот


Scorpions - House Of Cards - аккорды и текст, видео

Регистрация Запомнить меня
Войти через:  Facebook Google Twitter Vk Yandex Mail.ru

Scorpions - House Of Cards - аккорды и текст, видео

Печатать
Просмотров: 1697
House Of Cards
Scorpions
Intro: Fm   Eb  (2X)
    Fm                    G#                    Eb
E|---------------------|--------------------|--------------------|
B|-----------1---------|-----------1--------|-----------4--------|
G|-------------1-------|-------------1------|------3------3------|
D|------3--------3-----|------1--------1----|----5---5------5----|
A|----3---3--------3---|----3---3--------3--|--6--------------6--|
E|--1------------------|--4-----------------|--------------------|

Solo - Intro
E|----------------------------|------------------------------------------------------|
B|----------------------------|------------------------------------------------------|
G|--8/10~---6/8~--12/13~--10~-|--8/10~--13/15~--15/17~--13/15~-12~--13--15/17~--13~--|
D|----------------------------|------------------------------------------------------|
A|----------------------------|------------------------------------------------------|
E|----------------------------|------------------------------------------------------|

Fm          G#       Eb      Fm
Sometimes I walk mysterious places
                 G#      Eb
Hear voices that talk without a word to say
Fm          G#       Eb      Fm
Sometimes I hear the echoes of laughter
                   G#          Eb           Fm
In the twilight of affairs and other tragedies


Ponte: Fm   Eb


Fm          G#    Eb               Fm
A half-moon away, way too close to heaven
            G#        Eb        
She had the look, but no morality
    G#         Fm        G#   Eb        Fm 
Sometimes it's easy to forget only for a moment
                          G#      Eb
But there are nights you regret eternally

Bbm             Fm
Whatever frozen hearts can do
     C#           Eb
Will melt the ice away

        Fm             C#
How you know what it's like
         Eb                    Fm 
When good luck has changed the sides
                         C#          Eb
And no sun shines in the dark and no angels
               Fm             C#
Ever hear your prayers in the night
          Eb                Fm
When your fears come up your spine
                            C#                  Eb
When your life turns upside down it breaks your heart
     C#                            C
When you get crushed in a house of cards
      Fm      
House of cards


Ponte: Fm   Eb (2X) 


Fm                     G#       Eb        Fm
It's so hard to find a way when life is in pieces
                  G#           Eb
And the taste of a kiss is so bittersweet
Cm             Fm         G#    Eb        Fm
Sometimes it's easy to forget only for a moment
                                    G#      Eb
But the man who'll rise up from the ashes is no one else but me

     Bbm         Fm
I'm standing in a waterfall
   C#            Eb            
To wash the lies away

        Fm             C#
How you know what it's like
          Eb                  Fm 
When good luck has changed the sides
                         C#          Eb
And no sun shines in the dark and no angels
               Fm             C#
Ever hear your prayers in the night
          Eb                Fm
When your fears come up your spine
                            C#                  Eb
When your life turns upside down it breaks your heart
      Fm       G#    Eb
House of cards


Solo: Fm G# Eb Fm (3X)

E|-----13------------------|-11--------------------|--------------------------|
B|---------11/13~~--9/11~~-|------11/13------------|--------------------------|
G|-------------------------|-------------13--------|--10----8-----------------|
D|-------------------------|-----------------15~~--|-----10----8h10p8/6h8~~---|
A|-------------------------|-----------------------|--------------------------|
E|-------------------------|-----------------------|--------------------------|

E|----------------------------|-------6--8-----6h8p6/4h6--4--6/8------|
B|------------8h9p8-----------|--8b9--------9---------------------6~--|
G|-------------------8--10~~--|---------------------------------------|
D|--5--6--8-------------------|---------------------------------------|
A|----------------------------|---------------------------------------|
E|----------------------------|---------------------------------------|

E|--6-8-11---13--16~--13~--16-15~-----16--15~---13h15p13/11~/13--|
B|--------------------------------16-----------------------------|
G|---------------------------------------------------------------|
D|---------------------------------------------------------------|
A|---------------------------------------------------------------|
E|---------------------------------------------------------------|

   Bbm          Fm
Whatever frozen hearts can do
     C#           Eb
Will melt the ice away

        Fm             C#
How you know what it's like
         Eb                    Fm 
When good luck has changed the sides
                         C#          Eb
And no sun shines in the dark and no angels
               Fm             C#
Ever hear your prayers in the night
          Eb                Fm
When your fears come up your spine
                            C#                  Eb
When your life turns upside down and there is no one
     C#                            C
When you get crushed in a house of cards
      Fm      
House of cards
Eb      Fm      
House of cards

---------------------
Thanks to JLS Org.® 2015 to chordify the song.
Добавлено: 03.09.2015
Другие материалы по этой песне:
  • Аккорды и текст

Страница создана 03.09.2015
http://primanota.ru/scorpions/house-of-cards-chords.htm
Привет, Гость.
Предлагаем пройти революционный курс по гитаре.
Подарок от PrimaNota.Ru, забирай!