PrimaNota.ru - самый крупный в мире бесплатный архив песенных текстов, аккордов, табулатур и нот


Scooby Doo - Scooby Doo Theme Song - бас-таба, видео

Регистрация Запомнить меня
Войти через:  Facebook Google Twitter Vk Yandex Mail.ru

Scooby Doo - Scooby Doo Theme Song - бас-таба, видео

Печатать
Просмотров: 130
-------------------------------------------------------------------------------
                             Scooby Doo Theme Song - Scooby Doo
-------------------------------------------------------------------------------
Tabbed by: CorporalCrunch 

Tuning: Standard

Intro:
G|-----|
D|----6|
A|7-9--|
E|-----|


Verse 1: (Scooby Dooby Doo...)
G|---------------------------------------------------------------------------------------|
D|11-11-9-9-7---9-11----------11-11-9-9/11----11-11-9-9-7--7-9-11-11/12--------11-11-9-7-|
A|-------------------7--7-9-7-------------------------------------------7-9-7------------|
E|---------------------------------------------------------------------------------------|


Verse 2: (Come on,Scooby Doo...)
G|---------------------------------------------------------------------------------------|
D|11-11-9-9-7---9-11----------11-11-9-9/11----11-11-9-9-7--7-9-11-11/12--------11-11-9-7-|
A|-------------------7--7-9-7-------------------------------------------7-9-7------------|
E|---------------------------------------------------------------------------------------|


Bridge: (You know we got a mystery...)
E|--------------------------------------------------------------------|
G|7-9-11-11/12-12-12-12-12-12-12-12-12---12-11-12-12-11---12/14-14-11-|
D|--------------------------------------------------------------------|
A|--------------------------------------------------------------------|

E|----------------------------------------------------------------------------|
G|7-9-11-11/12-12-12-12-12-12-12-12-12---12-11-12-12-14---12/14--12/14--12/14-|
D|----------------------------------------------------------------------------|
A|----------------------------------------------------------------------------|



Verse 3: (Scooby Dooby Doo...)
G|-----|
D|----6|
A|7-9--|
E|-----|

G|---------------------------------------------------------------------------------------|
D|11-11-9-9-7---9-11----------11-11-9-9/11----11-11-9-9-7--7-9-11-11/12--------11-11-9-7-|
A|-------------------7--7-9-7-------------------------------------------7-9-7------------|
E|---------------------------------------------------------------------------------------|

| /  slide up
Добавлено: 19.12.2015
Вам также может быть интересно:
Другие материалы по этой песне:
  • Аккорды и текст

Страница создана 19.12.2015
http://primanota.ru/scooby-doo/scooby-doo-theme-song-chords.htm
Привет, Гость.
Предлагаем пройти революционный курс по гитаре.
Подарок от PrimaNota.Ru, забирай!