PrimaNota.ru - самый крупный в мире бесплатный архив песенных текстов, аккордов, табулатур и нот


Scientist - Drum Song Dub - бас-таба, видео

Регистрация Запомнить меня
Войти через:  Facebook Google Twitter Vk Yandex Mail.ru

Scientist - Drum Song Dub - бас-таба, видео

Печатать
Просмотров: 68
-------------------------------------------------------------------------------
                             Drum Song Dub - Scientist
-------------------------------------------------------------------------------
Tabbed by: Paulo Augusto
E-mail: paulo-augusto992@hotmail.com

Tuning:E A D G


Hi, this is the base of the song:

[0:00]
G|-------------------------------------------------------------------------------|
D|------6-8-----------6-8-8------------------------------------------------------|
A|-----------8---------------8---------------------------------------------------|
E|--6--------------6-------------------------------------------------------------| [6x]


[0:36]
G|-------------------------------------------------------------------------------|
D|------6-8-----------6-8-8------------------------------------------------------|
A|---------------------------8---------------------------------------------------|
E|--6-------6\-----6-------------------------------------------------------------| [2x]

[0:48]
G|-------------------------------------------------------------------------------|
D|------6-8-----------6-8-8------------------------------------------------------|
A|-------------------------------------------------------------------------------|
E|--6-------6\-----6--------6\---------------------------------------------------| [4x]

[1:11]
G|-------------------------------------------------------------------------------|
D|------6-8-----------6-8-8------------------------------------------------------|
A|-----------8---------------8---------------------------------------------------|
E|--6--------------6-------------------------------------------------------------| [4x]


[1:34]
G|-------------------------------------------------------------------------------|
D|------6-8-----------6-8-8------------------------------------------------------|
A|---------------------------8---------------------------------------------------|
E|--6-------6\-----6-------------------------------------------------------------|
 
G|-------------------------------------------------------------------------------|
D|------6-8-----------6-8-8------------------------------------------------------|
A|-------------------------------------------------------------------------------|
E|--6-------6\-----6-------------------------------------------------------------| [2x]

[1:52]
G|-------------------------------------------------------------------------------|
D|------6-8-----------6-8-8------------------------------------------------------|
A|-------------------------------------------------------------------------------|
E|--6-------6\-----6--------6\---------------------------------------------------| [3x]


[2:09]
G|-------------------------------------------------------------------------------|
D|------6-8-----------6-8-8------------------------------------------------------|
A|-----------8---------------8---------------------------------------------------|
E|--6--------------6-------------------------------------------------------------| [6x]

[2:48]
G|-------------------------------------------------------------------------------|
D|------6-8-----------6-8-8------------------------------------------------------|
A|-------------------------------------------------------------------------------|
E|--6-------6\-----6--------6----------------------------------------------------| [2x]

G|-------------------------------------------------------------------------------|
D|------6-8-----------6-8-8------------------------------------------------------|
A|-------------------------------------------------------------------------------|
E|--6-------6\-----6--------6\---------------------------------------------------| [3x]

[3:16]
G|-------------------------------------------------------------------------------|
D|------6-8-----------6-8-8------------------------------------------------------|
A|-----------8---------------8---------------------------------------------------|
E|--6--------------6-------------------------------------------------------------| [Until ends]

===============================================================================================
| /  slide up
| \  slide down
| h  hammer-on
| p  pull-off
| ~  vibrato
| +  harmonic
| x  Mute note
===============================================================================
Добавлено: 02.08.2015
Другие материалы по этой песне:
  • Аккорды и текст

Страница создана 02.08.2015
http://primanota.ru/scientist/drum-song-dub-chords.htm
Привет, Гость.
Предлагаем пройти революционный курс по гитаре.
Подарок от PrimaNota.Ru, забирай!