PrimaNota.ru - самый крупный в мире бесплатный архив песенных текстов, аккордов, табулатур и нот


School Of Fish - Three Strange Days - таба, видео

Регистрация Запомнить меня
Войти через:  Facebook Google Twitter Vk Yandex Mail.ru

School Of Fish - Three Strange Days - таба, видео

Печатать
Просмотров: 117
-----------------------------------------------------------------------------
			     Three Strange Days – School Of Fish
-----------------------------------------------------------------------------
Tabbed by: Don C.
Email: agt86c-1@yahoo.com

Tuning: Dropped D

Intro

   A		     G		  D		A		    		
e|--------------------------------------------------------------------------|
B|--------2------2-------2-/3-\2-----2-/3-\2--------2-/3-\2-----------------|
G|-2--0-2--2-0-2---2-0-2--------2-0-2---------2-0-2----------2--0-----------|
D|--------------------------------------------------------------------------|
A|--------------------------------------------------------------------------|
D|--------------------------------------------------------------------------|
   G	       D
e|--------------------------------------------------------------------------|
B|---2-/3-\2-------2-/3-\2--------------------------------------------------|
G|-2---------2-0-2---------2-0----------------------------------------------|
D|--------------------------------------------------------------------------|
A|--------------------------------------------------------------------------|
D|--------------------------------------------------------------------------|

Verse

e|-x-x-x-x--x-x-x-x--x-x-x-x--x-x-x-x--x-x-x-x--x-x-x-x--x-x--x-x--xxxx-----|
B|-x-x-x-x--x-x-x-x--x-x-x-x--x-x-x-x--x-x-x-x--x-x-x-x--x-x--x-x--7777-----|
G|-x-x-x-x--x-x-x-x--x-x-x-x--x-x-x-x--x-x-x-x--x-x-x-x--x-x--x-x--7777-----|
D|-7-7-7-5--7-7-7-5--7-7-7-5--7-7-7-5--7-7-7-5--7-7-7-5--7-5--7-5—-7777-----|
A|-0-0-0-0--0-0-0-0--0-0-0-0--0-0-0-0--0-0-0-0--0-0-5-5--5-5--5-5—-5555-----|
D|-7-7-7-7--7-7-7-7--7-7-7-7--7-7-7-7--7-7-7-7--7-7-5-5--5-5—-5-5—-4444-----|

Chorus

   A			       G	    D
e|--------------------------------------------------------------------------|
B|-----2-/3-\2-------2-/3-\2-------2-/3-\2-------2-/3-\2--------------------|
G|-0-2---------2-0-2---------2-0-2---------2-0-2---------2-0----------------|
D|--------------------------------------------------------------------------|
A|--------------------------------------------------------------------------|
D|--------------------------------------------------------------------------|


Break
						
   C  	     A   C			
e|-0--0--0---0---0--0--0-------|
B|-5-/7-\5---3---5-/7-\5-------|
G|-0--0--0---3---0--0--0-------|
D|-5-/7-\5---3---5-/7-\5-------|
A|-3-/5-\3---0---3-/5-\3-------|
D|-x--x--x---x---x—-x-—x-------|


I've got to make it through…

   A  E  G  D   A  E  G  D
e|-x--x--x--x---x--x--x--x-----------------|
B|-8--9--8--7---8--9--8--7-----------------|
G|-9--9--7--7---9--9--7--7-----------------|
D|-7--9--5--7---7--9--5--7-----------------|
A|-7--7--5--5---7--7--5--5-----------------|
D|-7--9--5--7---7--9--5--7-----------------|


Verse (Last)

e|-x-x-x-x--x-x-x-x--x-x-x-x--x-x-x-x--x-x-x-x--x-x-x-x--x-x--x-x--xxxx-----|
B|-x-x-x-x--x-x-x-x--x-x-x-x--x-x-x-x--x-x-x-x--x-x-x-x--x-x--x-x--8888-----|
G|-x-x-x-x--x-x-x-x--x-x-x-x--x-x-x-x--x-x-x-x--x-x-x-x--x-x--x-x--8888-----|
D|-8-8-8-6--8-8-8-6--8-8-8-6--8-8-8-6--8-8-8-6--8-8-8-6--8-6--8-6—-8888-----|
A|-x-x-x-x--x-x-x-x--x-x-x-x--x-x-x-x--x-x-x-x--x-x-6-6--6-6--6-6—-6666-----|
D|-8-8-8-8—-8-8-8-8—-8-8-8-8—-8-8-8-8--8-8-8-8—-8-8—6-6—-6-6—-6-6—-5555-----|

Chorus (Last)

   A#			       G#	    D#
e|--------------------------------------------------------------------------|
B|-----3-/4-\3-------3-/4-\3-------3-/4-\3-------3-/4-\3--------------------|
G|-1-3---------3-1-3---------3-1-3---------3-1-3---------3-1----------------|
D|--------------------------------------------------------------------------|
A|--------------------------------------------------------------------------|
D|--------------------------------------------------------------------------|


| /  slide up
| \  slide down
===============================================================================
Добавлено: 07.05.2012
Вам также может быть интересно:
Другие материалы по этой песне:
  • Аккорды и текст

Страница создана 07.05.2012
http://primanota.ru/school-of-fish/three-strange-days-chords.htm
Привет, Гость.
Предлагаем пройти революционный курс по гитаре.
Подарок от PrimaNota.Ru, забирай!