PrimaNota.ru - самый крупный в мире бесплатный архив песенных текстов, аккордов, табулатур и нот


School 94 - Hang Out In Haze - таба, видео

Регистрация Запомнить меня
Войти через:  Facebook Google Twitter Vk Yandex Mail.ru

School 94 - Hang Out In Haze - таба, видео

Печатать
Просмотров: 93
School '94 - Hang Out In Haze
Track 3 from the EP "Like You" (Cascine/Luxury 2014).

Listen to the song here:
https://soundcloud.com/cascine/sets/school-94-like-you-ep-1

Tabbed by Isaac Murguia, December 2014.
Originally uploaded to Ultimate-Guitar.com
Contact: www.youtube.com/Goadiroth

VERSE:
e|-----------------------|-------------------------------------|
B|-9------12------9------|-9------12---------------------------|
G|---11-9------11---11-9-|---11-9-------12-11-9----/13-11-9----|
D|-----------------------|----------------------11----------11-|
A|-----------------------|-------------------------------------|
E|-----------------------|-------------------------------------| [x4]

CHORUS:
e|------------------------------------|
B|------------------------------------|
G|-8-8-8-8-8-8-8-9--9-9-9-9-9-11-9-11-|
D|------------------------------------|
A|------------------------------------|
E|------------------------------------| [x2]

e|-7-7-7-7-7-7-9--------------------|-------------------------|
B|---------------9--9-9-9-9-9-9-9-9-|-------------------------|
G|----------------------------------|-11-11-11-11-11-11-9-8-8-|
D|----------------------------------|-------------------------|
A|----------------------------------|-------------------------|
E|----------------------------------|-------------------------|

Repeat VERSE
Repeat CHORUS
Repeat VERSE [x3]

VERSE OUTRO:
e|-----------------------|---------------------------------|
B|-9------12------9------|-9------12-----------------------|
G|---11-9------11---11-9-|---11-9-------12-11-9----/13-11--|
D|-----------------------|----------------------11---------|
A|-----------------------|---------------------------------|
E|-----------------------|---------------------------------|

There's also a 2nd guitar in the background,
and it sounds like he's playing this:
e|----7-7-7-7---7-7----------------|
B|----9-9-9-9---9-9----------------|
G|----9-9-9-9---9-9----------------|
D|---------------------------------|
A|---------------------------------|
E|---------------------------------|

End. Please rate :D
Добавлено: 30.07.2015
Другие материалы по этой песне:
  • Аккорды и текст

Страница создана 30.07.2015
http://primanota.ru/school-94/hang-out-in-haze-chords.htm
Привет, Гость.
Предлагаем пройти революционный курс по гитаре.
Подарок от PrimaNota.Ru, забирай!