PrimaNota.ru - самый крупный в мире бесплатный архив песенных текстов, аккордов, табулатур и нот


Schleprock - Suburbia - таба, бас-таба, видео

Регистрация Запомнить меня
Войти через:  Facebook Google Twitter Vk Yandex Mail.ru

Schleprock - Suburbia - таба, бас-таба, видео

Печатать
Просмотров: 135
Schleprock- Suburbia
America's Dirty Little Secret
Transciption By: Chad Holmes
.


Intro & Ending                                 Chorus & Bridge
-||------------------|------------------||-||-------------------|---------------
-||*---------4-4-----|-----5-5-4-4-----*||-||*------------------|---------------
-||*-2-2-5-5-----5-5-|-7-7---------5-5-*||-||*--5-5-5-5---------|---------------
-||------------------|------------------||-||-----------5-5-5-5-|-3-3-3-3-3-3---


Last Bar
-------||-||------------------||------------------------------------------------
------*||-||------------------||------------------------------------------------
------*||-||--7-7-7-5-5-5---2-||------------------------------------------------
3-3-3--||-||------------------||------------------------------------------------




================================================================================
==           Created with a shareware version of the BUCKET 'O TAB            ==
==                  tablature creation software for Windows                   ==
==                           For more information:                            ==
==                          email: gse@ocsystems.com                          ==
==      US Mail: The Bucket, 3176-B5 Summit Square Dr., Oakton, VA 22124      ==
================================================================================
Добавлено: 24.06.2012
Другие материалы по этой песне:
  • Аккорды и текст

Страница создана 26.05.2012
http://primanota.ru/schleprock/suburbia-chords.htm
Привет, Гость.
Предлагаем пройти революционный курс по гитаре.
Подарок от PrimaNota.Ru, забирай!