PrimaNota.ru - самый крупный в мире бесплатный архив песенных текстов, аккордов, табулатур и нот


Schematic - Hide And Seek - таба, видео

Регистрация Запомнить меня
Войти через:  Facebook Google Twitter Vk Yandex Mail.ru

Schematic - Hide And Seek - таба, видео

Печатать
Просмотров: 47
-------------------------------------------------------------------------------
                             Hide and Seek - Schematic
-------------------------------------------------------------------------------
Tabbed by: tbresson
E-mail: rovert.br@gmail.com

Tuning: Standard, Capo 4th

e|-----------------------|
B|---2---5---0-----------|
G|-----2---4---2---------| (x3)
D|-----------------------|
A|-----------------------|
E|-----------------------|

e|---------5(h)4(p)0---------------------------------------------------------|
B|---2---5-------------------------------------------------------------------|
G|-----2--------------2---5---0-----2---5---0-----2---5---0-----2---5---0----|
D|----------------------2---4---2-----2---4---2-----2---4---2-----2---4---2--|
A|---------------------------------------------------------------------------|
E|---------------------------------------------------------------------------|

e|--------------------------------------------------------5(h)4(p)0----------|
B|---3--2--5---0------3--2--5---0-----2---5---0-----2---5--------------------|
G|-----------4---2------------4---2-----2---4---2-----2----------------------|
D|---------------------------------------------------------------------------|
A|---------------------------------------------------------------------------|
E|---------------------------------------------------------------------------|

e|---------------------------------------------------------------------------|
B|---------------------------------------------------------------------------|
G|---2---5---0-----2---5---0-----2---5---0-----2---5---0---------------------|
D|-----2---4---2-----2---4---2-----2---4---2-----2---4---2-------------------|
A|---------------------------------------------------------------------------|
E|---------------------------------------------------------------------------|


e|---------------------------------------------------------------------------|
B|---3--2--5---0-----3--2--5---0---------------------------------------------|
G|-----------4---2-----------4---2-------------------------------------------|
D|---------------------------------------------------------------------------|
A|---------------------------------------------------------------------------|
E|---------------------------------------------------------------------------|

this is all I have tabbed so far. Sorry!

************************************

| /   slide up
| \   slide down
| h   hammer-on
| p   pull-off
| ~   vibrato
| +   harmonic
| x   Mute note
| b   Bend
| pb  Pre-bend
| br  Bend release
| pbr Pre-bend release
| brb Bend release bend

************************************
Добавлено: 21.06.2016
Другие материалы по этой песне:
  • Аккорды и текст

Страница создана 21.06.2016
http://primanota.ru/schematic/hide-and-seek-chords.htm
Привет, Гость.
Предлагаем пройти революционный курс по гитаре.
Подарок от PrimaNota.Ru, забирай!