PrimaNota.ru - самый крупный в мире бесплатный архив песенных текстов, аккордов, табулатур и нот


Schaliach - The Last Creed - таба, видео

Регистрация Запомнить меня
Войти через:  Facebook Google Twitter Vk Yandex Mail.ru

Schaliach - The Last Creed - таба, видео

Печатать
Просмотров: 55
		   Author/Artist: SCHALIACH
Title: The Last Creed
Album: Sonrise
Transcribed by: Niklas Borgenvik
Email: killik@hotmail.com

This song is not very hard to play.
This is my debut  tab so e-mail me if you have any comments (both good and bad) .
C-ya & God Bless!

------------------------------------------------------------------------------
------------------------------------------------------------------------------
------------------------------------------------------------------------------
-4-------6-------7-6-7-4-6-7-4-------6-------7-6-7-4-6-7----------------------
---4-4-4---4-4-4---------------5-5-5---5-5-5----------------------------------
------------------------------------------------------------------------------
                             ^2:nd gtr start             repeat               

------------------------------------------------------------------------------
------------------------------------------------------------------------------
-----------------6---6-6-6-6---6-6-6-------------------------6---6-6-6-6---6--
-7---7-7-7-7/9-9-4---4-4-4-4---4-4-4---4---4-4-4-4---4-4-4---4---4-4-4-4---4--
-5---5-5-5-5/7-7-----------------------5---5-5-5-5---5-5-5--------------------
------------------------------------------------------------------------------
                                                                              

------------------------------------------------------------------------------
------------------------------------------------------------------------------
-6-6---------------------6---6-6-6-6---6-6-6-----------------------6---6-6-6--
-4-4---7---7-7-7-7/9-9---4---4-4-4-4---4-4-4---4---4-4-4-4---4-4---4---4-4-4--
-------5---5-5-5-5/7-7-------------------------5---5-5-5-5---5-5--------------
------------------------------------------------------------------------------
                                                                              

------------------------------------------------------------------------------
------------------------------------------------------------------------------
-6---6-6-6--------------------------------------------------------------------
-4---4-4-4---7---7-7-7-7---7-7-7/9-9---6---6-6-------6-7-6-----7-6-----9---6--
-------------5---5-5-5-5---5-5-5/7-7---4---4-4---6-7-------7-5-----7-6---6-4--
------------------------------------------------------------------------------
                                                                              

------------------------------------------------------------------------------
-----------------x-x-x-------x-x-x-------x-x-x--------------------------------
-----x-x-x---6---6-6-6---7---7-7-7---6---6-6-6-------x-x-x---4-5-7------------
-9---9-9-9---4---4-4-4---5---5-5-5---4---4-4-4---7---7-7-7---------7---7-7-7--
-7---7-7-7---------------------------------------5---5-5-5---------5---5-5-5--
------------------------------------------------------------------------------
                                                                              

------------------------------------------------------------------------------
------------------------------------------------------------------------------
---------------7-----9-8------------------------------------------------------
-4-5-4---6-6-7---6-7-----9-6--------------------------------------------------
---------4-------------------7-5-4--------------------------------------------
------------------------------------------------------------------------------
                                                                              

------------------------------------------------------------------------------
------------------------------------------------------------------------------
------------------------------------------------------------------------------
-------------8---------------8------------------------------------------------
-6-9-8-6-5-8---5-6-9-8-6-5-8---5----------------------------------------------
------------------------------------------------------------------------------
 Play this part six times.                                                    

------------------------------------------------------------------------------
------------------------------------------------------------------------------
------------------------------------------------------------------------------
---8-5-8-9-----6--------------------------------------------------------------
-9---------9-8----------------------------------------------------------------
------------------------------------------------------------------------------
 Play this part four times.                                                   

------------------------------------------------------------------------------
------------------------------------------------------------------------------
------------------------------------------------------------------------------
-88----------------88----88----------------88---------------------------------
----99-88-66-55-88----55----99-88-66-55-88----55------------------------------
------------------------------------------------------------------------------
 Four times then switch to the next one.                                      

------------------------------------------------------------------------------
------------------------------------------------------------------------------
------------------------------------------------------------------------------
----88-55-88-99-------66----88-55-88-99-------66------------------------------
-99-------------99-88----99-------------99-88---------------------------------
------------------------------------------------------------------------------
 Four times.                                                                  

------------------------------------------------------------------------------
------------------------------------------------------------------------------
-8-------x-x-------x-x-x-x-------x-x-------x-x-x-x----------------------------
-6-9-8-7-7-7---7---7-7-7-7---7---7-7---7---7-7-7-7----------------------------
---7-6-5-5-5---5---5-5-5-5---5---5-5---5---5-5-5-5----------------------------
------------------------------------------------------------------------------
 Two times.                                                                   

------------------------------------------------------------------------------
------------------------------------------------------------------------------
-8----------------------------------------------------------------------------
-6-9-8-7----------------------------------------------------------------------
---7-6-5----------------------------------------------------------------------
------------------------------------------------------------------------------
 Repeat this part all the way through the solo.                               

------------------------------------------------------------------------------
---------------------------------------------9-7------------------------------
-----------------------------------7-9-8---------9-8-7---7-9-10-9-7-9---------
-6-6-8-9-8-6-8---------7-9---6-7-9-------9-6--------------------------9-------
---------------9-8-7-5-----9--------------------------------------------9-7---
------------------------------------------------------------------------------
 Solo:                                                                        

------------------------------------------------------------------------------
------------------------------------------------------------------------------
-----------6-8-6-------------4-2-1--------------------------------------------
-----6-8-9-------9-8-6---------------------------6----------------------------
-6---------------------9-5-5-------7-6-5-5-7-5---4----------------------------
------------------------------------------------------------------------------
                                                                              

------------------------------------------------------------------------------
---9---9---9---10---9---9---10-10-12------------------------------------------
-6---6---6---6----6---6---6---------------------------------------------------
------------------------------------------------------------------------------
------------------------------------------------------------------------------
------------------------------------------------------------------------------
 Fill#1 repeat.                                                               

------------------------------------------------------------------------------
------------------------------------------------------------------------------
------------------------------------------------------------------------------
-6-6-6---------------------4-4-5-5-6-6-6--------------------------------------
-4-4-4-6-7-7-7-7-7-7-7-7---2-2-3-3-4-4-4-6-7-7-7-7-7-7-7-7--------------------
-------4-5-5-5-5-5-5-5-5-----------------4-5-5-5-5-5-5-5-5--------------------
 Repeat.                                                                      

------------------------------------------------------------------------------
------------------------------------------------------------------------------
------------------------------------------------------------------------------
-------9-6---7-9-7-6-7-6-----------------9-6---7-9-7-6-7-6-7------------------
-4-6-7-----9-------------7-6-4-6-7-4-6-7-----9---------------6-4-6-7----------
------------------------------------------------------------------------------
 Solo 2.                                                                      

------------------------------------------------------------------------------
------------------------------------------------------------------------------
------------------------------------------------------------------------------
-6-6-6-6-6-6-6-6-6-6-6-6-8-6-6-6-6-6-6-6-6-6-6-6-6-6-6-8-6-6-6-6-6-6-6-6-6-6--
-4-4-4-4-4-4-4-4-4-4-4-4-6-4-4-4-4-4-4-4-4-4-4-4-4-4-4-6-4-4-4-4-4-4-4-4-4-4--
------------------------------------------------------------------------------
 This is played on the 2:nd gtr through the solo above                        

------------------------------------------------------------------------------
------------------------------------------------------------------------------
------------------------------------------------------------------------------
-6-6-6-6-8-8------------------------------------------------------------------
-4-4-4-4-6-6------------------------------------------------------------------
------------------------------------------------------------------------------
 After this, play fill#1 then solo 2 again.                                   

------------------------------------------------------------------------------
-------12-9----10-12-10-9-10------------------12-9----10-12-10-9-10----9------
-6-8-9------11---------------11-9-8-6---6-8-9------11---------------10--------
------------------------------------------------------------------------------
------------------------------------------------------------------------------
------------------------------------------------------------------------------
                                                                              

------------------------------------------------------------------------------
------------------------------------------------------------------------------
-----6-----------3-----4-----6-----------3-----4------------------------------
---6-------3---3-----4-----6-------3---3-----4--------------------------------
-4-------3---0-----2-----4-------3---0-----2----------------------------------
-------0-----------------------0----------------------------------------------
                                                                              

-11------------------------------------------------------------11-12-11-14-12-
----12-14-12------------------------------------------------------------------
-------------13-13-11-13-14-13-11------------9----9-11-9-11-13----------------
----------------------------------13-11-9-12---12-----------------------------
------------------------------------------------------------------------------
------------------------------------------------------------------------------
 This is the solo finish not quite right but close                            

-11-9--------------------7-9-7-9---------7------------------------------16----
------9-10-9-7-5-7-5-4-5---------10-9-10---9-7-5-7-4-5-4-5-7-4-7-9---14----16-
------------------------------------------------------------------------------
------------------------------------------------------------------------------
------------------------------------------------------------------------------
------------------------------------------------------------------------------
                                                                              

----------------------------------------------------------12-14-16-21-17-16---
-17-16-14----------------------------------------12-14-14---------------------
----------16-13-16-13-15-13----13---------------------------------------------
----------------------------16----16-14-13-13-14------------------------------
------------------------------------------------------------------------------
------------------------------------------------------------------------------
                                                                              

----------------16-18---------------------------------------------------------
-17-19-14-13-14---------------------------------------------------------------
------------------------------------------------------------------------------
------------------------------------------------------------------------------
------------------------------------------------------------------------------
------------------------------------------------------------------------------
 Thats it Enjoy!                                                              

     
Добавлено: 15.06.2013
Другие материалы по этой песне:
  • Аккорды и текст

Страница создана 15.06.2013
http://primanota.ru/schaliach/the-last-creed-chords.htm
Привет, Гость.
Предлагаем пройти революционный курс по гитаре.
Подарок от PrimaNota.Ru, забирай!