PrimaNota.ru - самый крупный в мире бесплатный архив песенных текстов, аккордов, табулатур и нот


Schaeffers Train - Schaeffers Train - таба, бас-таба, видео

Регистрация Запомнить меня
Войти через:  Facebook Google Twitter Vk Yandex Mail.ru

Schaeffers Train - Schaeffers Train - таба, бас-таба, видео

Печатать
Просмотров: 104
Schaeffer's Train                                 

Schaeffer's Train

http://schaefferstrain.tk

Guitarra

     Samples                                                           
                                    NH                                 
     W                16x   Q       H.               W                 
E||---------------------||-------<>12------------|---L----------------|
B||---------------------||-----------------------|--------------------|
G||-------------------*-||-----------------------|--------------------|
D||-------------------*-||-----------------------|--------------------|
A||---------------------||-----------------------|--------------------|
E||---------------------||-----------------------|--------------------|
 
 
         NH                                          NH            
  Q      H.              W                   Q       H.            
----------------------|-------------------|-----------------------|
-------<>7------------|--L----------------|-------<>12------------|
----------------------|-------------------|-----------------------|
----------------------|-------------------|-----------------------|
----------------------|-------------------|-----------------------|
----------------------|-------------------|-----------------------|
 
 
                       Cruzar 6 y 5 cuerdas en tr.10                       
                       >                                   >        >      
   W                   E                             E  E  E  E  E  E  E   
--------------------|-----------------------------------------------------|
---L----------------|-----------------------------------------------------|
--------------------|-----------------------------------------------------|
--------------------|-----------------------------------------------------|
--------------------|--x-----------------------------x--x--x--x--x--x--x--|
--------------------|--x-----------------------------x--x--x--x--x--x--x--|
 
 
  >        >        >        >        >        >      
  E  E  E  E  E  E  E  E     E  E  E  E  E  E  E  E   
--------------------------|--------------------------|
--------------------------|--------------------------|
--------------------------|--------------------------|
--------------------------|--------------------------|
--x--x--x--x--x--x--x--x--|--x--x--x--x--x--x--x--x--|
--x--x--x--x--x--x--x--x--|--x--x--x--x--x--x--x--x--|
 
 
  >        >         >                                                
  E  E  E  E  E  E   Q        W                   Q.     E  H         
---------------------------|-------------------|---------------------|
---------------------------|-------------------|---------------------|
---------------------------|--4----------------|--4------4--L--------|
---------------------------|--3----------------|--3------4--L--------|
--x--x--x--x--x--x---------|--2----------------|--2------2--L--------|
--x--x--x--x--x--x--12\----|-------------------|---------------------|
 
 
                                            >        >        >      
  W                   Q.     E  H           E  E  E  E  E  E  E  E   
-------------------|---------------------|--------------------------|
-------------------|---------------------|--------------------------|
--4----------------|--4------4--L--------|--------------------------|
--3----------------|--3------4--L--------|--------------------------|
--2----------------|--2------2--L--------|--3--3-----3--3-----3--3--|
-------------------|---------------------|--2--2-----3--2-----3--2--|
 
 
     >                       >        >        >      
  E  E  E  E  E  E  Q        E  E  E  E  E  E  E  E   
--------------------------|--------------------------|
--------------------------|--------------------------|
--------------------3~----|--------------------------|
--------------4--5--------|--------------------------|
--L--3--3-----3-----------|--3--3-----3--3-----3--3--|
--L--3--2-----------------|--2--2-----3--2-----3--2--|
 
 
     >                       >        >        >      
  E  E  E  E  E  E  Q        E  E  E  E  E  E  E  E   
--------------------------|--------------------------|
--------------------------|--------------------------|
--------------------3~----|--------------------------|
--------------4--5--------|--------------------------|
--L--3--3-----3-----------|--3--3-----3--3-----3--3--|
--L--3--2-----------------|--2--2-----3--2-----3--2--|
 
 
     >                       >        >        >      
  E  E  E  E  E  E  Q        E  E  E  E  E  E  E  E   
--------------------------|--------------------------|
--------------------------|--------------------------|
--------------------3~----|--------------------------|
--------------4--5--------|--------------------------|
--L--3--3-----3-----------|--3--3-----3--3-----3--3--|
--L--3--2-----------------|--2--2-----3--2-----3--2--|
 
 
     >                       >        >      >          
  E  E  E  E  E  E  Q        E  E  E  E   E  E   E  E   
--------------------------|----------------------------|
--------------------------|----------------------------|
--------------------3~----|----------------------------|
--------------4--5--------|----------------------------|
--L--3--3-----3-----------|----------------------------|
--L--3--2-----------------|--5--5--5--5b--5--5b--5--5--|
 
 
  >        >         >        >        >      >          
  E  E  E  E   E  E  Q        E  E  E  E   E  E   E  E   
---------------------------|----------------------------|
---------------------------|----------------------------|
---------------------------|----------------------------|
---------------------------|----------------------------|
---------------------4~----|----------------------------|
--5--5--5--5b--5--5--------|--5--5--5--5b--5--5b--5--5--|
 
 
                             >        >        >      
  E  E  E  E  E  E  E  E     E  E  E  E  E  E  E  E   
--------------------------|--------------------------|
--------------------------|--------------------------|
--------------------------|--------------------------|
--------------------------|--------------------------|
-----4-----4-----4-----3--|--3--3--4--3--3--4--3--4--|
--5-----5-----5-----5-----|--2--2--2--2--2--2--2--2--|
 
 
  >        >        >        >        >        >      
  E  E  E  E  E  E  Q        E  E  E  E  E  E  E  E   
--------------------------|--------------------------|
--------------------------|--------------------------|
--------------------------|--------------------------|
--------------------2~----|--------------------------|
--3--3--4--3--3--4--------|--3--3--4--3--3--4--3--4--|
--2--2--2--2--2--2--------|--2--2--2--2--2--2--2--2--|
 
 
  >        >                                                       
  E  E  E  E  E  E  Q        W                                     
--------------------------|-------------------|-------------------|
--------------------------|-------------------|-------------------|
--------------------------|-------------------|-------------------|
--------------------------|-------------------|-------------------|
--3--3--4--3--3--4--------|-------------------|-------------------|
--2--2--2--2--2--2--5~----|--L----------------|-------------------|
 
 
-------------------|-------------------|-------------------|-------------------|
-------------------|-------------------|-------------------|-------------------|
-------------------|-------------------|-------------------|-------------------|
-------------------|-------------------|-------------------|-------------------|
-------------------|-------------------|-------------------|-------------------|
-------------------|-------------------|-------------------|-------------------|
 
 
-------------------|-------------------|-------------------|-------------------|
-------------------|-------------------|-------------------|-------------------|
-------------------|-------------------|-------------------|-------------------|
-------------------|-------------------|-------------------|-------------------|
-------------------|-------------------|-------------------|-------------------|
-------------------|-------------------|-------------------|-------------------|
 
 
-------------------|-------------------|-------------------|-------------------|
-------------------|-------------------|-------------------|-------------------|
-------------------|-------------------|-------------------|-------------------|
-------------------|-------------------|-------------------|-------------------|
-------------------|-------------------|-------------------|-------------------|
-------------------|-------------------|-------------------|-------------------|
 
 
-------------------|-------------------|-------------------|-------------------|
-------------------|-------------------|-------------------|-------------------|
-------------------|-------------------|-------------------|-------------------|
-------------------|-------------------|-------------------|-------------------|
-------------------|-------------------|-------------------|-------------------|
-------------------|-------------------|-------------------|-------------------|
 
 
-------------------|-------------------|-------------------|-------------------|
-------------------|-------------------|-------------------|-------------------|
-------------------|-------------------|-------------------|-------------------|
-------------------|-------------------|-------------------|-------------------|
-------------------|-------------------|-------------------|-------------------|
-------------------|-------------------|-------------------|-------------------|
 
 
-------------------|-------------------|-------------------|-------------------|
-------------------|-------------------|-------------------|-------------------|
-------------------|-------------------|-------------------|-------------------|
-------------------|-------------------|-------------------|-------------------|
-------------------|-------------------|-------------------|-------------------|
-------------------|-------------------|-------------------|-------------------|
 
 
-------------------|-------------------|-------------------|-------------------|
-------------------|-------------------|-------------------|-------------------|
-------------------|-------------------|-------------------|-------------------|
-------------------|-------------------|-------------------|-------------------|
-------------------|-------------------|-------------------|-------------------|
-------------------|-------------------|-------------------|-------------------|
 
 
                                          Q.     E  Q    Q     
-------------------|-------------------|----------------------|
-------------------|-------------------|----------------------|
-------------------|-------------------|----------------------|
-------------------|-------------------|----------------------|
-------------------|-------------------|--8------8--L----8----|
-------------------|-------------------|--6------6--L----6----|
 
 
  Q.     E  Q    Q        Q.     E  Q    Q       Q.     E  Q    Q      
-----------------------|----------------------|-----------------------|
-----------------------|----------------------|-----------------------|
-----------------------|----------------------|-----------------------|
-----------------------|----------------------|-----------------------|
--8------8--8----8~----|--8------8--L----8----|--8------8--8----8~----|
--6------6--6----6-----|--6------6--L----6----|--6------6--6----6-----|
 
 
  Q    E  E   E  E  E  E     E  E  Q    E  E  Q        Q    E  E   E  E  E  E   
--------------------------|-------------------------|--------------------------|
-------8--7~--L-----8--7--|-----8--7-------7--8~----|-------8--7~--L-----8--7--|
--8--------------8--------|--8----------8-----------|--8--------------8--------|
--7--------------7--------|--7----------7-----------|--7--------------7--------|
--------------------------|-------------------------|--------------------------|
--------------------------|-------------------------|--------------------------|
 
 
  E  E  Q    E  E  Q        Q    E  E   E  E  E  E     E  E  Q    E  E  Q      
-------------------------|--------------------------|-------------------------|
-----8--7-------7--8~----|-------8--7~--L-----8--7--|-----8--7-------7--8~----|
--8----------8-----------|--8--------------8--------|--8----------8-----------|
--7----------7-----------|--7--------------7--------|--7----------7-----------|
-------------------------|--------------------------|-------------------------|
-------------------------|--------------------------|-------------------------|
 
 
  Q    E  E   E  E  E  E     E  E  Q    E  E  Q        Q.     E  Q    Q     
--------------------------|-------------------------|----------------------|
-------8--7~--L-----8--7--|-----8--7-------7--8~----|----------------------|
--8--------------8--------|--8----------8-----------|----------------------|
--7--------------7--------|--7----------7-----------|----------------------|
--------------------------|-------------------------|--8------8--L----8----|
--------------------------|-------------------------|--6------6--L----6----|
 
 
  Q.     E  Q    Q        Q.     E  Q    Q       Q.     E  Q    Q              
-----------------------|----------------------|-----------------------|-------|
-----------------------|----------------------|-----------------------|-------|
-----------------------|----------------------|-----------------------|-------|
-----------------------|----------------------|-----------------------|-------|
--8------8--8----8~----|--8------8--L----8----|--8------8--8----8~----|-------|
--6------6--6----6-----|--6------6--L----6----|--6------6--6----6-----|-------|
 
 
-------|-------|-------|-------|-------|-------|-------|
-------|-------|-------|-------|-------|-------|-------|
-------|-------|-------|-------|-------|-------|-------|
-------|-------|-------|-------|-------|-------|-------|
-------|-------|-------|-------|-------|-------|-------|
-------|-------|-------|-------|-------|-------|-------|
 
 
  >        >        >           >                     
  E  E  E  E  E  E  E  E     E  E  E  E  E  E  Q      
--------------------------|--------------------------|
--------------------------|--------------------------|
--------------------------|--------------------3~----|
--------------------------|--------------4--5--------|
--3--3-----3--3-----3--3--|--L--3--3-----3-----------|
--2--2-----3--2-----3--2--|--L--3--2-----------------|
 
 
  >        >        >           >                     
  E  E  E  E  E  E  E  E     E  E  E  E  E  E  Q      
--------------------------|--------------------------|
--------------------------|--------------------------|
--------------------------|--------------------3~----|
--------------------------|--------------4--5--------|
--3--3-----3--3-----3--3--|--L--3--3-----3-----------|
--2--2-----3--2-----3--2--|--L--3--2-----------------|
 
 
  >        >        >           >                     
  E  E  E  E  E  E  E  E     E  E  E  E  E  E  Q      
--------------------------|--------------------------|
--------------------------|--------------------------|
--------------------------|--------------------3~----|
--------------------------|--------------4--5--------|
--3--3-----3--3-----3--3--|--L--3--3-----3-----------|
--2--2-----3--2-----3--2--|--L--3--2-----------------|
 
 
  >        >        >           >                     
  E  E  E  E  E  E  E  E     E  E  E  E  E  E  Q      
--------------------------|--------------------------|
--------------------------|--------------------------|
--------------------------|--------------------3~----|
--------------------------|--------------4--5--------|
--3--3-----3--3-----3--3--|--L--3--3-----3-----------|
--2--2-----3--2-----3--2--|--L--3--2-----------------|
 
 
  >        >      >            >        >         >      
  E  E  E  E   E  E   E  E     E  E  E  E   E  E  Q      
----------------------------|---------------------------|
----------------------------|---------------------------|
----------------------------|---------------------------|
----------------------------|---------------------------|
----------------------------|---------------------4~----|
--5--5--5--5b--5--5b--5--5--|--5--5--5--5b--5--5--------|
 
 
  >        >      >                                     
  E  E  E  E   E  E   E  E     E  E  E  E  E  E  E  E   
----------------------------|--------------------------|
----------------------------|--------------------------|
----------------------------|--------------------------|
----------------------------|--------------------------|
----------------------------|-----4-----4-----4-----3--|
--5--5--5--5b--5--5b--5--5--|--5-----5-----5-----5-----|
 
 
  >        >        >        >        >        >      
  E  E  E  E  E  E  E  E     E  E  E  E  E  E  Q      
--------------------------|--------------------------|
--------------------------|--------------------------|
--------------------------|--------------------------|
--------------------------|--------------------2~----|
--3--3--4--3--3--4--3--4--|--3--3--4--3--3--4--------|
--2--2--2--2--2--2--2--2--|--2--2--2--2--2--2--------|
 
 
  >        >        >        >        >                                   
  E  E  E  E  E  E  E  E     E  E  E  E  E  E  Q        W                 
--------------------------|--------------------------|-------------------|
--------------------------|--------------------------|-------------------|
--------------------------|--------------------------|-------------------|
--------------------------|--------------------------|-------------------|
--3--3--4--3--3--4--3--4--|--3--3--4--3--3--4--------|-------------------|
--2--2--2--2--2--2--2--2--|--2--2--2--2--2--2--5~----|--L----------------|
 
 
-------------------||
-------------------||
-------------------||
-------------------||
-------------------||
-------------------||
 
 
 
 
Duration Legend
---------------
W - whole
H - half
Q - quarter
E - 8th
S - 16th
T - 32nd
X - 64th
. - note dotted
|-n-|  - n-tuplets
 
 
Tablature Legend
----------------
L - tied note
x - dead note
g - grace note
(n) - ghost note
> - accentuded note
NH - natural harmonic
AH - artificial harmonic
TH - tapped harmonic
SH - semi harmonic
PH - pitch harmonic
h - hammer on
p - pull off
b - bend
br - bendRelease
pb - preBend
pbr - preBendRelease
brb - bendReleaseBend
\n/ - tremolo bar dip
\n - tremolo bar dive
-/n - tremolo bar Release up
/n\ - tremolo bar inverted dip
/n - tremolo bar return
-\n - tremolo bar Release down
S - shift slide
s - legato slide
/ -  slide into from below or out of upwards
\ -  slide into from above or out of downwards
~ - vibrato
W - wide vibrato
tr - tril'
TP - tremolo picking
T - tapping
S - slap
P - pop
< - fade in
^ - brush up
v - brush down
Добавлено: 19.06.2012
Другие материалы по этой песне:

Страница создана 17.05.2012
http://primanota.ru/schaeffers-train/schaeffers-train-chords.htm
Привет, Гость.
Предлагаем пройти революционный курс по гитаре.
Подарок от PrimaNota.Ru, забирай!