PrimaNota.ru - самый крупный в мире бесплатный архив песенных текстов, аккордов, табулатур и нот


Schaeffers Train - Savor Your Life - таба, бас-таба, видео

Регистрация Запомнить меня
Войти через:  Facebook Google Twitter Vk Yandex Mail.ru

Schaeffers Train - Savor Your Life - таба, бас-таба, видео

Печатать
Просмотров: 122
Уроки эстрадного вокала в Санкт-Петербурге
-------------------------------------------------------------------------------
                             Savor Your Life - Schaeffer's Train
-------------------------------------------------------------------------------
Tabbed by: Gyatso
Email: 
Web: http://schaefferstrain.tk

Guitarra 2
     W                   W                      E  E  E  E  E   E  E  E   
E||-------------------|---------------------||--------7------------------|
B||-------------------|---------------------||-----8--------8--10-----7--|
G||-------------------|-------------------*-||--9--------9---------9-----|
D||-------------------|-------------------*-||---------------------------|
A||-------------------|---------------------||---------------------------|
E||-------------------|---------------------||---------------------------|
 
 
  E  E  E  E   E  E  E  E     E  E  E  E  E   E  E  E   
-----7---------------------|--------7------------------|
--8-----8-----10--8-----7--|-----8--------8--10-----7--|
-----------9---------9-----|--9--------9---------9-----|
---------------------------|---------------------------|
---------------------------|---------------------------|
---------------------------|---------------------------|
 
 
  E  E  E  E   E  E  Q         E  E  E  E  E   E  E  E   
-----7--------------------||---------7------------------|
--8-----8-----10--8-------||------8--------8--10-----7--|
-----------9---------9----||*--9--------9---------9-----|
--------------------------||*---------------------------|
--------------------------||----------------------------|
--------------------------||----------------------------|
 
 
  Q    E  E  E  E  Q       E  E  E  E  E   E  E  E   
----------7-------------|--------7------------------|
--L----------8-----7----|-----8--------8--10-----7--|
-------9--------9-------|--9--------9---------9-----|
------------------------|---------------------------|
------------------------|---------------------------|
------------------------|---------------------------|
 
 
                                PM PM PM PM PM PM PM PM  
  Q    E  E   E  E  Q           E  E  E  E  E  E  E  E   
---------------------------||---------------------------|
--8----8-----10--8---------||---------------------------|
----------9---------9----*-||*--------------------------|
-------------------------*-||*--------------------------|
---------------------------||---------2-----5-----2-----|
---------------------------||---0--0-----0-----0-----0--|
 
 
  PM PM PM PM                PM PM PM PM  PM PM PM PM  
  E  E  E  E  E  E  Q        E  E  E  E   E  E  E  E   
--------------------------|---------------------------|
--------------------------|---------------------------|
--------------------------|---------------------------|
--------------------5~----|---------------------------|
--------2-----5--7--------|--------7-----10-----7-----|
--0--0-----0--------------|--0--0-----0------0-----0--|
 
 
  PM PM PM PM                 PM PM PM PM PM PM PM PM  
  E  E  E  E  E   E  Q        E  E  E  E  E  E  E  E   
---------------------------|--------------------------|
---------------------------|--------------------------|
---------------------7~----|--------------------------|
---------------------------|--------------------------|
--------7-----9--10--------|--------2-----5-----2-----|
--0--0-----0---------------|--0--0-----0-----0-----0--|
 
 
  PM PM PM PM                PM PM PM PM  PM PM PM PM  
  E  E  E  E  E  E  Q        E  E  E  E   E  E  E  E   
--------------------------|---------------------------|
--------------------------|---------------------------|
--------------------------|---------------------------|
--------------------5~----|---------------------------|
--------2-----5--7--------|--------7-----10-----7-----|
--0--0-----0--------------|--0--0-----0------0-----0--|
 
 
  PM PM PM PM                 PM PM PM PM PM PM PM PM  
  E  E  E  E  E   E  Q        E  E  E  E  E  E  E  E   
---------------------------|--------------------------|
---------------------------|--------------------------|
---------------------7~----|--------------------------|
---------------------------|--------------------------|
--------7-----9--10--------|--------2-----5-----2-----|
--0--0-----0---------------|--0--0-----0-----0-----0--|
 
 
  PM PM PM PM                PM PM PM PM  PM PM PM PM  
  E  E  E  E  E  E  Q        E  E  E  E   E  E  E  E   
--------------------------|---------------------------|
--------------------------|---------------------------|
--------------------------|---------------------------|
--------------------5~----|---------------------------|
--------2-----5--7--------|--------7-----10-----7-----|
--0--0-----0--------------|--0--0-----0------0-----0--|
 
 
  PM PM PM PM                 PM PM PM PM PM PM PM PM  
  E  E  E  E  E   E  Q        E  E  E  E  E  E  E  E   
---------------------------|--------------------------|
---------------------------|--------------------------|
---------------------7~----|--------------------------|
---------------------------|--------------------------|
--------7-----9--10--------|--------2-----5-----2-----|
--0--0-----0---------------|--0--0-----0-----0-----0--|
 
 
  PM PM PM PM                PM PM PM PM  PM PM PM PM  
  E  E  E  E  E  E  Q        E  E  E  E   E  E  E  E   
--------------------------|---------------------------|
--------------------------|---------------------------|
--------------------------|---------------------------|
--------------------5~----|---------------------------|
--------2-----5--7--------|--------7-----10-----7-----|
--0--0-----0--------------|--0--0-----0------0-----0--|
 
 
  PM PM PM PM                                                                 
  E  E  E  E  E   E  Q         Q.       E   Q     Q         W                 
---------------------------|----------------------------|--------------------|
---------------------------|--12b------12---L-----------|--------------------|
---------------------7~----|---------------------11~----|---L----------------|
---------------------------|----------------------------|--------------------|
--------7-----9--10--------|----------------------------|--------------------|
--0--0-----0---------------|----------------------------|--------------------|
 
 
   Q.       E   E   E   Q         E   Q.       Q     Q      
------------------------------|------12~------13----14~----|
--12b------12---L--14--15~----|---L------------------------|
------------------------------|----------------------------|
------------------------------|----------------------------|
------------------------------|----------------------------|
------------------------------|----------------------------|
 
 
   Q.       E   Q     Q         H         E   E   E   E   
----------------------------|----------------12--10------|
--12b------12---L-----------|------------------------12--|
---------------------11~----|---L---------L--------------|
----------------------------|----------------------------|
----------------------------|----------------------------|
----------------------------|----------------------------|
 
 
   Q.       E    Q     Q         E   Q      E    Q     Q        
-----------------------------|------------------------21------||
--12b------12b---L----12b----|---L--12b----12b---L----17------||
-----------------------------|------------------------------*-||
-----------------------------|------------------------------*-||
-----------------------------|--------------------------------||
-----------------------------|--------------------------------||
 
 
  PM PM PM PM PM PM PM PM    PM PM PM PM              
  E  E  E  E  E  E  E  E     E  E  E  E  E  E  Q      
--------------------------|--------------------------|
--------------------------|--------------------------|
--------------------------|--------------------------|
--------------------------|--------------------5~----|
--------2-----5-----2-----|--------2-----5--7--------|
--0--0-----0-----0-----0--|--0--0-----0--------------|
 
 
  PM PM PM PM  PM PM PM PM    PM PM PM PM                                   
  E  E  E  E   E  E  E  E     E  E  E  E  E   E  Q        W                 
---------------------------|---------------------------|-------------------|
---------------------------|---------------------------|-------------------|
---------------------------|---------------------7~----|-------------------|
---------------------------|---------------------------|-------------------|
--------7-----10-----7-----|--------7-----9--10--------|-------------------|
--0--0-----0------0-----0--|--0--0-----0---------------|-------------------|
 
 
  W                   W                   W                   W                 
-------------------|-------------------|-------------------|-------------------|
-------------------|-------------------|-------------------|-------------------|
-------------------|-------------------|-------------------|-------------------|
-------------------|-------------------|-------------------|-------------------|
-------------------|-------------------|-------------------|-------------------|
-------------------|-------------------|-------------------|-------------------|
 
 
  W                   W                   W                 
-------------------|-------------------|-------------------|
-------------------|-------------------|-------------------|
-------------------|-------------------|-------------------|
-------------------|-------------------|-------------------|
-------------------|-------------------|-------------------|
-------------------|-------------------|-------------------|
 
 
    E  E  E  E  E   E  E  E     Q    E  E  E  E  Q     
|---------7------------------|----------7-------------|
|------8--------8--10-----7--|--L----------8-----7----|
|*--9--------9---------9-----|-------9--------9-------|
|*---------------------------|------------------------|
|----------------------------|------------------------|
|----------------------------|------------------------|
 
 
  E  E  E  E  E   E  E  E     Q    E  E   E  E  Q        
--------7------------------|---------------------------||
-----8--------8--10-----7--|--8----8-----10--8---------||
--9--------9---------9-----|----------9---------9----*-||
---------------------------|-------------------------*-||
---------------------------|---------------------------||
---------------------------|---------------------------||
 
 
  PM PM PM PM PM PM PM PM    PM PM PM PM PM PM PM PM  
  E  E  E  E  E  E  E  E     E  E  E  E  E  E  E  E   
--------------------------|--------------------------|
--------------------------|--------------------------|
--------------------------|--------------------------|
--4--4--4--5--5--4--5--4--|--4--4--5--5--4--5--4--4--|
--------------------------|--------------------------|
--------------------------|--------------------------|
 
 
  PM PM PM PM PM PM PM PM    PM PM PM PM PM PM PM PM  
  E  E  E  E  E  E  E  E     E  E  E  E  E  E  E  E   
--------------------------|--------------------------|
--------------------------|--------------------------|
--------------------------|--------------------------|
--4--4--4--5--5--4--5--4--|--4--4--4--5--5--5--4--5--|
--------------------------|--------------------------|
--------------------------|--------------------------|
 
 
  PM PM PM PM PM PM PM PM    PM PM PM PM PM PM PM PM  
  E  E  E  E  E  E  E  E     E  E  E  E  E  E  E  E   
--------------------------|--------------------------|
--------------------------|--------------------------|
--------------------------|--------------------------|
--4--4--4--5--5--4--5--4--|--4--4--5--5--4--5--4--4--|
--------------------------|--------------------------|
--------------------------|--------------------------|
 
 
  PM PM PM PM PM PM PM PM    PM PM PM PM PM PM PM PM  
  E  E  E  E  E  E  E  E     E  E  E  E  E  E  E  E   
--------------------------|--------------------------|
--------------------------|--------------------------|
--------------------------|--------------------------|
--4--4--4--5--5--4--5--4--|--4--4--4--5--5--5--4--5--|
--------------------------|--------------------------|
--------------------------|--------------------------|
 
 
   S   S  E   Q     S   S  E   S   S  E      E   E    E   E   E   E   Q      
---------10---L-----------10---------10--|--12--15b---L--14---L------12~----|
--10S-12-----------10S-12-----10S-12-----|-----------------------15---------|
-----------------------------------------|----------------------------------|
-----------------------------------------|----------------------------------|
-----------------------------------------|----------------------------------|
-----------------------------------------|----------------------------------|
 
 
   Q      E   E    E   E   Q         E   Q      E   Q      Q      
---------17-----------17---------|--17---------17--20b----20b----|
--20b--------20b---L------20b----|------20b----------------------|
---------------------------------|-------------------------------|
---------------------------------|-------------------------------|
---------------------------------|-------------------------------|
---------------------------------|-------------------------------|
 
 
   S   S  E   Q     S   S  E   S   S  E      E   E    E   E   E   E   Q      
---------15---L-----------10---------15--|--17--20b---L--19---L--15--17~----|
--15S-17-----------10S-12-----15S-17-----|----------------------------------|
-----------------------------------------|----------------------------------|
-----------------------------------------|----------------------------------|
-----------------------------------------|----------------------------------|
-----------------------------------------|----------------------------------|
 
 
   Q      E   E    E   E   Q         E   Q      E   Q      Q      
---------17-----------17---------|--17---------17--20b----20b----|
--20b--------22b---L------20b----|------22b----------------------|
---------------------------------|-------------------------------|
---------------------------------|-------------------------------|
---------------------------------|-------------------------------|
---------------------------------|-------------------------------|
 
 
   S   S  E   Q     S   S  E   S   S  E      E   E    E   E   E   E   Q      
---------10---L-----------10---------10--|--12--15b---L--14---L------12~----|
--10S-12-----------10S-12-----10S-12-----|-----------------------15---------|
-----------------------------------------|----------------------------------|
-----------------------------------------|----------------------------------|
-----------------------------------------|----------------------------------|
-----------------------------------------|----------------------------------|
 
 
   Q      E   E    E   E   Q         E   Q      E   Q      Q      
---------17-----------17---------|--17---------17--20b----20b----|
--20b--------20b---L------20b----|------20b----------------------|
---------------------------------|-------------------------------|
---------------------------------|-------------------------------|
---------------------------------|-------------------------------|
---------------------------------|-------------------------------|
 
 
   S   S  E   Q     S   S  E   S   S  E      E   E    E   E   E   E   Q      
---------15---L-----------10---------15--|--17--20b---L--19---L--15--17~----|
--15S-17-----------10S-12-----15S-17-----|----------------------------------|
-----------------------------------------|----------------------------------|
-----------------------------------------|----------------------------------|
-----------------------------------------|----------------------------------|
-----------------------------------------|----------------------------------|
 
 
   Q      E   E    E   E   Q         E   Q      E   Q      Q      
---------17-----------17---------|--17---------17--20b----20b----|
--20b--------22b---L------20b----|------22b----------------------|
---------------------------------|-------------------------------|
---------------------------------|-------------------------------|
---------------------------------|-------------------------------|
---------------------------------|-------------------------------|
 
 
   W                    W                    W                 
--------------------|--------------------|--------------------|
--------------------|--------------------|--------------------|
--------------------|--------------------|--------------------|
--14----------------|---L----------------|---L----------------|
--14----------------|---L----------------|---L----------------|
--12----------------|---L----------------|---L----------------|
 
 
   W                  
--------------------||
--------------------||
--------------------||
---L----------------||
---L----------------||
---L----------------||
 
 
 
 
Duration Legend
---------------
W - whole
H - half
Q - quarter
E - 8th
S - 16th
T - 32nd
X - 64th
. - note dotted
|-n-|  - n-tuplets
 
 
Tablature Legend
----------------
L - tied note
x - dead note
g - grace note
(n) - ghost note
> - accentuded note
NH - natural harmonic
AH - artificial harmonic
TH - tapped harmonic
SH - semi harmonic
PH - pitch harmonic
h - hammer on
p - pull off
b - bend
br - bendRelease
pb - preBend
pbr - preBendRelease
brb - bendReleaseBend
\n/ - tremolo bar dip
\n - tremolo bar dive
-/n - tremolo bar Release up
/n\ - tremolo bar inverted dip
/n - tremolo bar return
-\n - tremolo bar Release down
S - shift slide
s - legato slide
/ -  slide into from below or out of upwards
\ -  slide into from above or out of downwards
~ - vibrato
W - wide vibrato
tr - tril'
TP - tremolo picking
T - tapping
S - slap
P - pop
< - fade in
^ - brush up
v - brush down
Добавлено: 05.03.2012
Вам также может быть интересно:
Другие материалы по этой песне:

Страница создана 05.03.2012
http://primanota.ru/schaeffers-train/savor-your-life-chords.htm
Привет, Гость.
Предлагаем пройти революционный курс по гитаре.
Подарок от PrimaNota.Ru, забирай!