PrimaNota.ru - самый крупный в мире бесплатный архив песенных текстов, аккордов, табулатур и нот


Schaeffers Train - Mawi - таба, видео

Регистрация Запомнить меня
Войти через:  Facebook Google Twitter Vk Yandex Mail.ru

Schaeffers Train - Mawi - таба, видео

Печатать
Просмотров: 131
Mawi                                       
Gyatso (Luis D.)
Guit.2

E||-------|-------|-------|-------|-------|-------|-------|-------|-------|
B||-------|-------|-------|-------|-------|-------|-------|-------|-------|
G||-------|-------|-------|-------|-------|-------|-------|-------|-------|
D||-------|-------|-------|-------|-------|-------|-------|-------|-------|
A||-------|-------|-------|-------|-------|-------|-------|-------|-------|
E||-------|-------|-------|-------|-------|-------|-------|-------|-------|
 
 
                                   E   E   E  E   Q     Q     
-------|-------|-------|-------|--12----------9--------10----|
-------|-------|-------|-------|------10---L-----10----------|
-------|-------|-------|-------|-----------------------------|
-------|-------|-------|-------|-----------------------------|
-------|-------|-------|-------|-----------------------------|
-------|-------|-------|-------|-----------------------------|
 
 
   Q.     E  E  Q    E     H.           Q       H.            Q     
---L------5-------------|--------------------|---------------------|
-------------8-------5--|--7------------8----|---------------10----|
----------------7-------|--------------------|--9------------------|
------------------------|--------------------|---------------------|
------------------------|--------------------|---------------------|
------------------------|--------------------|---------------------|
 
 
   H         H            H.            Q        W                 
------------10--------|----------------------|--------------------|
----------------------|--10------------12----|--13----------------|
--10------------------|----------------------|--------------------|
----------------------|----------------------|--------------------|
----------------------|----------------------|--------------------|
----------------------|----------------------|--------------------|
 
 
                                                NH         NH        
                       Q    Q    Q    Q         H          H         
-------------------|-----------------------|------------------------|
-------------------|-----------------------|------------------------|
-------------------|--------9----7---------|-------------<>7--------|
-------------------|--10--------------9----|--<>7-------------------|
-------------------|-----------------------|------------------------|
-------------------|-----------------------|------------------------|
 
 
    NH                                                                
    W                      H.            Q        H         H         
---------------------||---12------------------|------------15--------|
---------------------||-----------------13----|--15------------------|
---------------------||*----------------------|----------------------|
--<>7----------------||*----------------------|----------------------|
---------------------||-----------------------|----------------------|
---------------------||-----------------------|----------------------|
 
 
   H.            E   E      H         H            H.            Q     
--12--------------------|----------------------|--12------------------|
----------------15--13--|--12------------------|----------------13----|
------------------------|------------12--------|----------------------|
------------------------|----------------------|----------------------|
------------------------|----------------------|----------------------|
------------------------|----------------------|----------------------|
 
 
   H         H            H.            E   E      W                    
--15--------12--------|--15----------------12--|----------------------||
----------------------|----------------13------|--15------------------||
----------------------|------------------------|--------------------*-||
----------------------|------------------------|--------------------*-||
----------------------|------------------------|----------------------||
----------------------|------------------------|----------------------||
 
 
   W                    H.            Q        H.            Q     
--------------------|--12------------10----|----------------10----|
--12----------------|----------------------|--12------------------|
--------------------|----------------------|----------------------|
--------------------|----------------------|----------------------|
--------------------|----------------------|----------------------|
--------------------|----------------------|----------------------|
 
 
   H.            Q        W                    H.            Q     
----------------------|--------------------|--12------------15----|
--10------------12----|--------------------|----------------------|
----------------------|--10----------------|----------------------|
----------------------|--------------------|----------------------|
----------------------|--------------------|----------------------|
----------------------|--------------------|----------------------|
 
 
   H.            Q        H.            Q        H.            E   E   
----------------------|----------------------|------------------------|
--12------------15----|----------------------|------------------------|
----------------------|--14------------16----|--12------------12--16--|
----------------------|----------------------|------------------------|
----------------------|----------------------|------------------------|
----------------------|----------------------|------------------------|
 
 
                                            NH     
   H.            E   E      H.              Q      
------------------------|----------------<>12----||
------------------------|------------------------||
--14------------12--16--|--14--------------------||
------------------------|------------------------||
------------------------|------------------------||
------------------------|------------------------||
 
 
 
 
Duration Legend
---------------
W - whole
H - half
Q - quarter
E - 8th
S - 16th
T - 32nd
X - 64th
. - note dotted
|-n-|  - n-tuplets
 
 
Tablature Legend
----------------
L - tied note
x - dead note
g - grace note
(n) - ghost note
> - accentuded note
NH - natural harmonic
AH - artificial harmonic
TH - tapped harmonic
SH - semi harmonic
PH - pitch harmonic
h - hammer on
p - pull off
b - bend
br - bendRelease
pb - preBend
pbr - preBendRelease
brb - bendReleaseBend
\n/ - tremolo bar dip
\n - tremolo bar dive
-/n - tremolo bar Release up
/n\ - tremolo bar inverted dip
/n - tremolo bar return
-\n - tremolo bar Release down
S - shift slide
s - legato slide
/ -  slide into from below or out of upwards
\ -  slide into from above or out of downwards
~ - vibrato
W - wide vibrato
tr - tril'
TP - tremolo picking
T - tapping
S - slap
P - pop
< - fade in
^ - brush up
v - brush down
Добавлено: 11.06.2012
Другие материалы по этой песне:

Страница создана 03.06.2012
http://primanota.ru/schaeffers-train/mawi-chords.htm
Привет, Гость.
Предлагаем пройти революционный курс по гитаре.
Подарок от PrimaNota.Ru, забирай!