PrimaNota.ru - самый крупный в мире бесплатный архив песенных текстов, аккордов, табулатур и нот


Scary Kids Scaring Kids - Drowning - текст песни, таба, видео

Регистрация Запомнить меня
Войти через:  Facebook Google Twitter Vk Yandex Mail.ru

Scary Kids Scaring Kids - Drowning - текст песни, таба, видео

Печатать
Просмотров: 104
Tabbed by: Joshua Garcia (halofreak 731@aol.com)

Tabs For the song: Drowning by Scary Kids Scaring Kids
Please rate and let me know if you have any corrections. Thank you.

Tuning: Standard

Intro
Guitar 1:
E||--------------------------------------------------------------------|
B||-10h12-----------12---------------------12-----10h12-----------12---|
G||---------11h12----------11h12---11h12------------------11h12--------|
D||-------9-------9--------------9-------9--------------9-------9------|
A||--------------------------------------------------------------------|
E||--------------------------------------------------------------------|



Guitar 2:
E||--------------------------------------------------------------------|
B||--------------------------------------------------------------------|
G||-11h12------12-9-11-----11h12------12-9-11-----11h12------12-9-11---|
D||-------9-12-------------------9-12-------------------9-12-----------|
A||--------------------------------------------------------------------|
E||--------------------------------------------------------------------|



Verse
Guitar 1:
E||----------------------------------------------------------------------------------|
B||-8-8-88----8-8-88----8-8-88----8-8-88---------------------------------------------|
G||-x-x-xx----x-x-xx----x-x-xx----x-x-xx----5-5-55----5-5-55----7-7-77----8-8-88-8---| x2
D||-9-9-99----9-9-99----9-9-99----9-9-99----5-5-55----5-5-55----7-7-77----8-8-88-8---|
A||-7-7-77----7-7-77----7-7-77----7-7-77----3-3-33----3-3-33----5-5-55----6-6-66-6---|
E||-7-7-77----7-7-77----7-7-77----7-7-77----3-3-33----3-3-33----5-5-55----6-6-66-6---|



Guitar 2:
E||-------------------------------------------------------------------------|
B||-0-12--10-----------0-12--10-----------0-12--10-----------0-12--10-------|
G||----------12-11-12-----------12-11-12-----------12-11-12----------1211---|
D||-------------------------------------------------------------------------|
A||-------------------------------------------------------------------------|
E||-------------------------------------------------------------------------|


E||-------------------------------------------------------------------------|
B||-0-12--10-----------0-12--10-----------0-12--10-----------0-12--10-------|
G||----------12-11-12-----------12-11-12-----------12-11-12------------12---| x2
D||-------------------------------------------------------------------------|
A||-------------------------------------------------------------------------|
E||-------------------------------------------------------------------------|



Pre-Chorus
Guitar 1:
E||---------------------------------------|
B||--10/12--------------------------------|
G||----------11-12---10-7-7/9-------------|
D||--------9-------9----------9-7-9-7-----|
A||-----------------------------------9---|
E||---------------------------------------|



Guitar 2:
E||----------------------------------------|
B||----------------------------------------|
G||--11h12------9-0------------------------|
D||--------9-12-----9-7-7/9----------------|
A||-------------------------10-9-10-9------|
E||-----------------------------------10---|



Chorus
Guitar 1:
E||------------------------------------|
B||------------------------------------|
G||-99999999999999995555555555555555---|
D||-99999999999999995555555555555555---|
A||-77777777777777773333333333333333---|
E||-77777777777777773333333333333333---|


E||-----------------------------------------------|
B||-----------------------------------------------|
G||----------5-5-5----------5-5-5----------7-7-7--| x2
D||----------5-5-5----------5-5-5----------7-7-7--|
A||--333333333-3-3--333333333-3-3--555555555-5-5--|
E||-----------------------------------------------|
     ........       ........       ........



Pre-Verse
Guitar 1:
E||---------------------|
B||-10/12---------------|
G||---------11-12-------|
D||-------9-------9-12--|
A||---------------------|
E||---------------------|


Guitar 2:
E||---------------------|
B||---------------------|
G||-11h12------9--------|
D||-------9-12---7h9----|
A||---------------------|
E||---------------------|



Verse
Guitar 1:
E||----------------------------------------------------------------------------------|
B||-8-8-88----8-8-88----8-8-88----8-8-88---------------------------------------------|
G||-x-x-xx----x-x-xx----x-x-xx----x-x-xx----5-5-55----5-5-55----7-7-77----8-8-88-8---| x2
D||-9-9-99----9-9-99----9-9-99----9-9-99----5-5-55----5-5-55----7-7-77----8-8-88-8---|
A||-7-7-77----7-7-77----7-7-77----7-7-77----3-3-33----3-3-33----5-5-55----6-6-66-6---|
E||-7-7-77----7-7-77----7-7-77----7-7-77----3-3-33----3-3-33----5-5-55----6-6-66-6---|



Guitar 2:
E||-------------------------------------------------------------------------|
B||-0-12--10-----------0-12--10-----------0-12--10-----------0-12--10-------|
G||----------12-11-12-----------12-11-12-----------12-11-12----------1211---|
D||-------------------------------------------------------------------------|
A||-------------------------------------------------------------------------|
E||-------------------------------------------------------------------------|


E||-------------------------------------------------------------------------|
B||-0-12--10-----------0-12--10-----------0-12--10-----------0-12--10-------|
G||----------12-11-12-----------12-11-12-----------12-11-12------------12---| x2
D||-------------------------------------------------------------------------|
A||-------------------------------------------------------------------------|
E||-------------------------------------------------------------------------|



Pre-Chorus
Guitar 1:
E||---------------------------------------|
B||--10/12--------------------------------|
G||----------11-12---10-7-7/9-------------|
D||--------9-------9----------9-7-9-7-----|
A||-----------------------------------9---|
E||---------------------------------------|



Guitar 2:
E||----------------------------------------|
B||----------------------------------------|
G||--11h12------9-0------------------------|
D||--------9-12-----9-7-7/9----------------|
A||-------------------------10-9-10-9------|
E||-----------------------------------10---|



Chorus
Guitar 1:
E||------------------------------------|
B||------------------------------------|
G||-99999999999999995555555555555555---|
D||-99999999999999995555555555555555---|
A||-77777777777777773333333333333333---|
E||-77777777777777773333333333333333---|


E||-----------------------------------------------|
B||-----------------------------------------------|
G||----------5-5-5----------5-5-5----------7-7-7--|
D||----------5-5-5----------5-5-5----------7-7-7--|
A||--333333333-3-3--333333333-3-3--555555555-5-5--|
E||-----------------------------------------------|
     ........       ........       ........

E||------------------------------------|
B||------------------------------------|
G||-99999999999999995555555555555555---|
D||-99999999999999995555555555555555---|
A||-77777777777777773333333333333333---|
E||-77777777777777773333333333333333---|
                                       

E||----------------------------------------------------------|
B||----------------------------------------------------------|
G||---------5-5-5----------5-5-5----------7-7-7-8-8-8-9-9-9--|
D||---------5-5-5----------5-5-5----------7-7-7-8-8-8-9-9-9--|
A||-333333333-3-3--333333333-3-3--555555555-5-5-6-6-6-7-7-7--|
E||----------------------------------------------------------|
    ........       ........       ........



Bridge (Can't tell if it's a guitar playing or not, if it is, here's how it goes.)
Guitar 1:
E||-------10--12----14h15------------------|
B||-10h12-----------------------10h12------|
G||-----------------------11h12------------|
D||-----------------------------------12---|
A||----------------------------------------|
E||----------------------------------------|



Chorus
Guitar 1:
E||------------------------------------|
B||------------------------------------|
G||-99999999999999995555555555555555---|
D||-99999999999999995555555555555555---|
A||-77777777777777773333333333333333---|
E||-77777777777777773333333333333333---|


E||-----------------------------------------------|
B||-----------------------------------------------|
G||----------5-5-5----------5-5-5----------7-7-7--|
D||----------5-5-5----------5-5-5----------7-7-7--|
A||--333333333-3-3--333333333-3-3--555555555-5-5--|
E||-----------------------------------------------|
     ........       ........       ........

E||------------------------------------|
B||------------------------------------|
G||-99999999999999995555555555555555---|
D||-99999999999999995555555555555555---|
A||-77777777777777773333333333333333---|
E||-77777777777777773333333333333333---|
                                       

E||--------------------------------------------------------------|
B||--------------------------------------------------------------|
G||----------5-5-5----------5-5-5----------7-7-7----------7-7-7--|
D||----------5-5-5----------5-5-5----------7-7-7----------7-7-7--|
A||--333333333-3-3--333333333-3-3--555555555-5-5--555555555-5-5--|
E||--------------------------------------------------------------|
     ........       ........       ........       ........


E||-------------------------------------------------|
B||-------------------------------------------------|
G||----------5-5-5----------5-5-5----------7-7-7-7--|
D||----------5-5-5----------5-5-5----------7-7-7-7--|
A||--333333333-3-3--333333333-3-3--555555555-5-5-5--|
E||-------------------------------------------------|
     ........       ........       ........



Outro
Guitar 1:
E||---------------------------------------------|
B||-8-8-88----8-8-88----8-8-88--------8--8--88--|
G||-x-x-xx----x-x-xx----x-x-xx--------x--x--xx--|
D||-9-9-99----9-9-99----9-9-99--xxxx--9--9--99--|
A||-7-7-77----7-7-77----7-7-77--xxxx--7--7--77--|
E||-7-7-77----7-7-77----7-7-77--xxxx--7--7--77--|




Tablature Legend
----------------
 h   - hammer-on
 p   - pull-off
 b   - bend
 r   - release bend
 *   - pinch harmonic
 '   - natural harmonic
 x   - mute note
 .   - palm mute
 /   - slide down
 \   - slide up
Добавлено: 19.07.2012
Другие материалы по этой песне:

Страница создана 12.03.2012
http://primanota.ru/scary-kids-scaring-kids/drowning-chords.htm
Привет, Гость.
Предлагаем пройти революционный курс по гитаре.
Подарок от PrimaNota.Ru, забирай!