PrimaNota.ru - самый крупный в мире бесплатный архив песенных текстов, аккордов, табулатур и нот


Scars On Broadway - Fuck N Kill - таба, видео

Регистрация Запомнить меня
Войти через:  Facebook Google Twitter Vk Yandex Mail.ru

Scars On Broadway - Fuck N Kill - таба, видео

Печатать
Просмотров: 219
Artist: Scars On Broadway
Album: upcoming EP/album
Song: Fuck 'N Kill (performed live at the Epicenter Festival on 2012-09-22)
Tuning: Drop C#
Tabbed by: Chili_Pat
PM = palm muting

Typical and catchy Scars On Broadway song. Clean and distorted guitar parts, with much 
highs, some boosted bass and a normal amount of mids. Repeat the stuff as much as necessary.

Intro/Bridge:
D#|-------------------------------------------------------------------------|
Bb|-------------------------------------------------------------------------|
F#|-------------------------------------------------------------------------|
C#|-2~-2-2-2-2-2-2-2~-2-2-2-2-2-3--2~-2-2-2-2-2-2-2~-2-2-2-2-2-0------------|
G#|-2~-2-2-2-2-2-2-2~-2-2-2-2-2-3--2~-2-2-2-2-2-2-2~-2-2-2-2-2-0------------|
C#|-2~-2-2-2-2-2-2-2~-2-2-2-2-2-3--2~-2-2-2-2-2-2-2~-2-2-2-2-2-0------------|

Play the Main Riff a few times with a clean/crunch guitar tone!

Main Riff:
D#|-------------------------------------------------------------------------|
Bb|-------------------------------------------------------------------------|
F#|-------------------------------------------------------------------------|
C#|-2~-2-2-2-2-3~--2~-2-2-2-2-0~--------------------------------------------|
G#|-2~-2-2-2-2-3~--2~-2-2-2-2-0~--------------------------------------------|
C#|-2~-2-2-2-2-3~--2~-2-2-2-2-0~--------------------------------------------|

Break:
D#|-------------------------------------------------------------------------|
Bb|-------------------------------------------------------------------------|
F#|-7-7-7-7-9-9-9-910101010-14-14-14-14-13-13-13-1310101010-9-9-9-9-7-7-7-7-|
C#|-x-x-x-x-x-x-x-x-x-x-x-x--x--x--x--x--x--x--x--x-x-x-x-x-x-x-x-x-x-x-x-x-|
G#|-5-5-5-5-7-7-7-7-8-8-8-8-12-12-12-12-11-11-11-11-8-8-8-8-7-7-7-7-5-5-5-5-|
C#|-------------------------------------------------------------------------|

Break (last time before Chorus):
D#|-------------------------------------------------------------------------|
Bb|-------------------------------------------------------------------------|
F#|-7-7-7-7-9-9-9-9-10-10-10-10-14-14-14-14-13-13-13-13-10-10-10-10-9-------|
C#|-x-x-x-x-x-x-x-x--x--x--x--x--x--x--x--x--x--x--x--x--x--x--x--x-x-------|
G#|-5-5-5-5-7-7-7-7--8--8--8--8-12-12-12-12-11-11-11-11--8--8--8--8-7-------|
C#|-------------------------------------------------------------------------|

Chorus:
D#|-------------------------------------------------------------------------|
Bb|-------------------------------------------------------------------------|
F#|-------------------------------------------------------------------------|
C#|-2~-2-3-3-0-2~-2-2-2-2-2-2-2-2-2-2-2-2-2-2-2-2---------------------------|
G#|-2~-2-3-3-0-2~-2-2-2-2-2-2-2-2-2-2-2-2-2-2-2-2---------------------------|
C#|-2~-2-3-3-0-2~-2-2-2-2-2-2-2-2-2-2-2-2-2-2-2-2---------------------------|
PM|---------------*-*-*-*-*-*-*-*-*-*-*-*-*-*-*-*---------------------------|

D#|-------------------------------------------------------------------------|
Bb|-------------------------------------------------------------------------|
F#|-------------------------------------------------------------------------|
C#|-2~-2-8-8-7-7~-7-7-7-7-7-7-7-7-7-7-7-7-7-7-7-7---------------------------|
G#|-2~-2-8-8-7-7~-7-7-7-7-7-7-7-7-7-7-7-7-7-7-7-7---------------------------|
C#|-2~-2-8-8-7-7~-7-7-7-7-7-7-7-7-7-7-7-7-7-7-7-7---------------------------|
PM|---------------*-*-*-*-*-*-*-*-*-*-*-*-*-*-*-*---------------------------|

^ Last time before next part without palm muting!

Modified Main Riff for Outro:
D#|-------------------------------------------------------------------------|
Bb|-------------------------------------------------------------------------|
F#|-------------------------------------------------------------------------|
C#|-2-2-2-2-2-2-3~--2-2-2-2-2-2-0~------------------------------------------|
G#|-2-2-2-2-2-2-3~--2-2-2-2-2-2-0~------------------------------------------|
C#|-2-2-2-2-2-2-3~--2-2-2-2-2-2-0~------------------------------------------|
PM|-*-*-*-*-*-*-----*-*-*-*-*-*---------------------------------------------|

Listen to the live version and you will find out about the order of the parts and so on. 
Have fun and let's look together forward to the new Scars records!
Добавлено: 05.09.2013
Другие материалы по этой песне:

Страница создана 23.07.2013
http://primanota.ru/scars-on-broadway/fuck-n-kill-chords.htm
Привет, Гость.
Предлагаем пройти революционный курс по гитаре.
Подарок от PrimaNota.Ru, забирай!