PrimaNota.ru - самый крупный в мире бесплатный архив песенных текстов, аккордов, табулатур и нот


Scars On Broadway - Enemy - текст песни, таба, драм-таба, видео

Регистрация Запомнить меня
Войти через:  Facebook Google Twitter Vk Yandex Mail.ru

Scars On Broadway - Enemy - текст песни, таба, драм-таба, видео

Печатать
Просмотров: 447
Enemy

Tuning: C# G# C#... 

RIFF A x2: 

D#|-----------------------------------------------------| 
A#|--8p6-6-6-8p6-6-6-8p6------6-6-8p6-6-6-8p6-6---------| 
F#|----------------------9-7--------------------5-5-5s7-| 

D#|--------------------------------------------------------------| 
A#|--6-6-8p6-6-6-8p6-6-6-8p6-----6-6-8p6-6-6-8p6-6-6-8p6-6-6-8p6-| 
F#|--------------------------9-7---------------------------------| 



RIFF B: 
   ……………………(x3) 
|-(0)------------|--0--0--0--0--| 
|--3--3--3--3----|--1--1--1--1--| 
|--2--2--2--0----|--0--0--0--0--| 
|--0--0--0--0----|--2--2--2--2--| (x 4) 
|--0--0--0--0----|--3--3--3--3--| 
|--0--0--0--0----|--------------| 

RIFF C: 

- PM…,----------PM…, 
|--------------------------------| 
|--------------------------------| 
|---------10s12-------9s10-------| 
|--0-0------------0-0------------| (x 4) 
|----------8s10--------7s8-------| 
|--------------------------------| 

RIFF B': 
……………………(x3) 
|----------------|--0--0--0--0--| 
|----------------|--1--1--1--1--| 
|----------------|--0--0--0--0--| 
|---(RIFF C)-----|--2--2--2--2--| (x 4) 
|----------------|--3--3--3--3--| 
|----------------|--------------| 

RIFF B x 2 

RIFF B'': 

|--0----------0-----------------| 
|--3----3--------3--------------| 
|--2--------2------2------5-----| 
|--0--------------------2-------| 
|--0------------------3------3--| 
|--0----------------------------| 

|--0---------------------------| 
|--3---------------------------| 
|--2----------------------5----| 
|--0--------------------2------| 
|--0----3p0----------3------3--| 
|--0---------3-0---------------| 

|--0---------------------------| 
|--3---------------------------| 
|--2-----------------------5---| 
|--0----------3-0-------2------| 
|--0----3p0----------3-------3-| 
|--0---------------------------| 

...........................We are on 
|--0------------------0--------| 
|--3------------------1--------| 
|--2------------------0--------| 
|--0------------------2--------| 
|--0----3p0-----------3--------| 
|--0---------3-0---------------| 

Drugs.............................we are on 
|--0--------------0-----------0---0--------| 
|--3------------3------3------1---1--------| 
|--2------0h2------------2----0---0--------| 
|--0--------------------------2---2--------| 
|--0--------------------------3---3--------| 
|--0---------------------------------------| 

Drugs, 
|--0--------------0--------------------| 
|--3------------3------3-------3-------| 
|--2------0h2------------2p0----2------| 
|--0-----------------------------------| 
|--0-----------------------------------| 
|--0-----------------------------------| 

....we.....are.on.drugs...........we are on 
|--0--0---0---0--0---------------0--0-----| 
|--3--3---1---1--3---------------1--1-----| 
|--2--2---0---0--2---------------0--0-----| 
|--0--0---2---2--0---------------2--2-----| 
|--0--0---3---3--0—3p0----------3--3------| 
|--0--0----------0-------3--0-------------| 

Drugs.....................we are on 
|--0---------------------0---0---------| 
|--3---------------------1---1---------| 
|--2---------------------0---0---------| 
|--0----------3-0--------2---2---------| 
|--0----3p0--------------3---3---------| 
|--0-----------------------------------| 

drugs..................baby...we are on drugs 
.....................................do you like drugs? 
|--0--0---------------------|--0-----0------0----| 
|--3--3---------------------|--3-----1------3----| 
|--2--2---------------------|--2-----0------2----| 
|--0--0---------------------|--0-----2------0----| 
|--0--0---—3p0--------------|--0-----3------0----| 
|--0--0----------3--0-------|--0------------0----| 

RIFF A x 2 
RIFF B x 2 
RIFF B' x 2
Добавлено: 10.07.2012
Другие материалы по этой песне:

Страница создана 10.04.2012
http://primanota.ru/scars-on-broadway/enemy-chords.htm
Привет, Гость.
Предлагаем пройти революционный курс по гитаре.
Подарок от PrimaNota.Ru, забирай!