PrimaNota.ru - самый крупный в мире бесплатный архив песенных текстов, аккордов, табулатур и нот


Scars Of Tomorrow - Reflections - таба, видео

Регистрация Запомнить меня
Войти через:  Facebook Google Twitter Vk Yandex Mail.ru

Scars Of Tomorrow - Reflections - таба, видео

Печатать
Просмотров: 111
Уроки эстрадного вокала в Санкт-Петербурге
Artist: Scars of Tomorrow
Album: Rope Tied to the Trigger
Song: Reflections

Well I think this is pretty good for my first tab. Enjoy.
(If there isn't another line stemmed off one of the line it means both guitars are playing it)
Tuned in Drop C (CGCFAD)


Intro
|-----------------------------------------------------| 2x
|-----------------------------------------------------|
|-----------------------------------------------------|
|--6----------6---------------------------------------|
|--6--0000-0--6-0--0-0-0-0-2h4p2-0--------------------|
|--6--0000-0--6-0--0-0-0-0-2h4p2-0--2222111122220000--|

Verse                              2x
|-----------------------------------|-------------------------------------|
|-----------------------------------|-------------------------------------|
|-----------------------------------|-------------------------------------|
|--6----------6---------------------|-------------------------------------|
|--6--0000-0--6-0--0-0-0-0-2h4p2-0--|--66-0000-66-0000-000000000-2h4p2-0--|
|--6--0000-0--6-0--0-0-0-0-2h4p2-0--|--66-0000-66-0000-000000000-2h4p2-0--|

|--------------------------------------|-----------------------------------|
|--------------------------------------|-----------------------------------|
|--------------------------------------|-----------------------------------|
|--------------------------------------|-----------------------------------|
|--6--0000-0--6-0-----------0-0-0-0-0--|--6--0000-0--6-0--0-0-0-0-2h4p2-0--|
|--6--0000-0--6-0-----------0-0-0-0-0--|--6--0000-0--6-0--0-0-0-0-2h4p2-0--|

|-----------------------------------| 4x
|-----------------------------------|
|-----------------------------------|
|-----------------------------------|
|--6--0000-0--6-0--0-0-0-0-2h4p2-0--|
|--6--0000-0--6-0--0-0-0-0-2h4p2-0--|


Chorus
|---------------------------------------------------|
|---------------------------------------------------|
|---------------------------------------------------|
|--3322000000-332200-3322000000--66666666553366000--|
|--3322000000-332200-3322000000--66666666553366000--|
|--3322000000-332200-3322000000--66666666553366000--|
|
|---------------------------------------------------|
|---------------------------------------------------|
|---------------------------------------------------|
|--3322000000-332200-3322000000--66666666553366000--|
|--3322000000-332200-3322000000--66666666553366000--|
|--3322000000-332200-3322000000--66666666553366000--|

|---------------------------------------------------|
|---------------------------------------------------|
|---------------------------------------------------|
|--3322000000-332200-3322000000--66666666553366000--|
|--3322000000-332200-3322000000--66666666553366000--|
|--3322000000-332200-3322000000--66666666553366000--|
|
|--------------------------------------------------|
|--------------------------------------------------|
|--88877777-88778888877777--5555555555-7777777777--|
|--xxxxxxxx-xxxxxxxxxxxxxx--xxxxxxxxxx-xxxxxxxxxx--|
|--66655555-66556666655555--3333333333-5555555555--|
|--------------------------------------------------|

Verse    2z
|--------------------------------------|-----------------------------------|
|--------------------------------------|-----------------------------------|
|--------------------------------------|-----------------------------------|
|--------------------------------------|-----------------------------------|
|--6--0000-0--6-0-----------0-0-0-0-0--|--6--0000-0--6-0--0-0-0-0-2h4p2-0--|
|--6--0000-0--6-0-----------0-0-0-0-0--|--6--0000-0--6-0--0-0-0-0-2h4p2-0--|

Breakdown    4x
|----------------------------------------|
|----------------------------------------|
|----------------------------------------|
|----------------------------------------|
|--6p5-000-000--6p5-000-000--0000000000--|
|--6p5-000-000--6p5-000-000--0000000000--|

Pre-Chorus           |                  3x          
|--------------------|--------------------|
|--------------------|--------------------|
|--------------------|--------------------|
|--------------------|--------------------|
|-0------------------|--------------------|
|-0------------------|--------------------|
|
|--------------------|--------------------|
|--------------------|--------------------|
|--7777777777555555--|--7777777777555555--|
|--xxxxxxxxxxxxxxxx--|--xxxxxxxxxxxxxxxx--|
|--5555555555333333--|--5555555555333333--|
|--------------------|--------------------|

Chorus
|---------------------------------------------------|
|---------------------------------------------------|
|---------------------------------------------------|
|--3322000000-332200-3322000000--66666666553366000--|
|--3322000000-332200-3322000000--66666666553366000--|
|--3322000000-332200-3322000000--66666666553366000--|
|
|---------------------------------------------------|
|---------------------------------------------------|
|---------------------------------------------------|
|--3322000000-332200-3322000000--66666666553366000--|
|--3322000000-332200-3322000000--66666666553366000--|
|--3322000000-332200-3322000000--66666666553366000--|

|---------------------------------------------------|
|---------------------------------------------------|
|---------------------------------------------------|
|--3322000000-332200-3322000000--66666666553366000--|
|--3322000000-332200-3322000000--66666666553366000--|
|--3322000000-332200-3322000000--66666666553366000--|
|
|--------------------------------------------------|
|--------------------------------------------------|
|--88877777-88778888877777--5555555555-7777777777--|
|--xxxxxxxx-xxxxxxxxxxxxxx--xxxxxxxxxx-xxxxxxxxxx--|
|--66655555-66556666655555--3333333333-5555555555--|
|--------------------------------------------------|


“And you saw your clouded past...”                       2x
|----------------------------------------------------------|
|----------------------------------------------------------|
|----------------------------------------------------------|
|--5p3p0-00000000000000000-88888888888--33333333-55555555--|
|--5p3p0-00000000000000000-88888888888--33333333-55555555--|
|--5p3p0-00000000000000000-88888888888--33333333-55555555--|


Breakdown- “Forsake”                4x
|------------------------------------|
|------------------------------------|
|------------------------------------|
|------------------------------------|
|--6p5-000-000--6p5-000-000--000000--|
|--6p5-000-000--6p5-000-000--000000--|

               “Brainwashing...”                 4x
|-----------|--------------------------------------|
|-----------|--------------------------------------|
|-----------|--------------------------------------|
|--6///\\\--|--------------------------------------|
|--6///\\\--|--6p5-000-000--6p5-000-000--00000000--|
|--6///\\\--|--6p5-000-000--6p5-000-000--00000000--|

Pre-Bridge                           2x
|-----------------|----------------------|
|-----------------|----------------------|
|-----------------|----------------------|
|--3-2-0------0---|----------------------|
|--3-2-0------0---|----------------------|
|--3-2-0------0---|----------------------|
|
|-----------------|----------------------|
|-----------------|----------------------|
|-----------------|--77777777-5555-7777--|
|--3-2-0------0---|--xxxxxxxx-xxxx-xxxx--|
|--3-2-0------0---|--55555555-3333-5555--|
|--3-2-0------0---|----------------------|


Bridge                                4x
|-----------------------------------------------|
|-----------------------------------------------|
|--/777777-55-2222------------------------------|
|------------------7775-00000000-7775-00000000--|
|-----------------------------------------------|
|-----------------------------------------------|
|
|----------------------------------------------|
|----------------------------------------------|
|----------------------------------------------|
|--5-3-0-------------8------0------------------|
|--5-3-0-------------8------0------------------|
|--5-3-0-------------8------0------------------|

“And you saw your clouded past...”   2x
|----------------------------------------------|
|----------------------------------------------|
|----------------------------------------------|
|--5-3-0-------------8------33333333-55555555--|
|--5-3-0-------------8------33333333-55555555--|
|--5-3-0-------------8------33333333-55555555--|

Bridge- “Your reasons for leaving...”       4x
|-----------------------------------------------|
|-----------------------------------------------|
|--/777777-55-2222------------------------------|
|------------------7775-00000000-7775-00000000--|
|-----------------------------------------------|
|-----------------------------------------------|
|
|----------------------------------------------------------|
|----------------------------------------------------------|
|----------------------------------------------------------|
|--5p3p0-00000000000000000-88888888888--33333333-55555555--|
|--5p3p0-00000000000000000-88888888888--33333333-55555555--|
|--5p3p0-00000000000000000-88888888888--33333333-55555555--|

Outro (x2)
|------------------------------------------|
|------------------------------------------|
|--/77777755-77777755-77777755-77777755----|
|------------------------------------------|
|------------------------------------------|
|------------------------------------------|
|
|------------------------------------------|
|------------------------------------------|
|------------------------------------------|
|--5-3-0-------------8------3--------------|
|--5-3-0-------------8------3--------------|
|--5-3-0-------------8------3--------------|

End
|-----------------------------|----------------------------------------|
|-----------------------------|----------------------------------------|
|---/77777755--77777755-2222--|--2t19~p-t17~p-t19~p-t-17~p-t19~p-t19~~-|
|-----------------------------|----------------------------------------|
|-----------------------------|----------------------------------------|
|-----------------------------|----------------------------------------|
|
|----------------------------------------------------------------------|
|----------------------------------------------------------------------|
|----------------------------------------------------------------------|
|--5-3-0------------8------0-------------------------------------------|
|--5-3-0------------8------0-------------------------------------------|
|--5-3-0------------8------0-------------------------------------------|

Добавлено: 05.06.2012
Другие материалы по этой песне:
  • Аккорды и текст

Страница создана 05.06.2012
http://primanota.ru/scars-of-tomorrow/reflections-chords.htm
Привет, Гость.
Предлагаем пройти революционный курс по гитаре.
Подарок от PrimaNota.Ru, забирай!