PrimaNota.ru - самый крупный в мире бесплатный архив песенных текстов, аккордов, табулатур и нот


Scarling - We Are The Music Makers - текст песни, бас-таба, видео

Регистрация Запомнить меня
Войти через:  Facebook Google Twitter Vk Yandex Mail.ru

Scarling - We Are The Music Makers - текст песни, бас-таба, видео

Печатать
Просмотров: 51
INTRO/VERSE:

G|---------------------------------------------------------------|
D|---------------------------------------------------------------|
A|-2222222222222222/4444/888/66666666----------------------------| x10
E|---------------------------------------------------------------|

CHORUS:

   we are the music makers...
G|---------------------------------------------------------------|
D|---------------------------------------------------------------|
A|-2-22222-2-22222-6-6666-8-8888-99------------------------------| x2
E|---------------------------------------------------------------|

   well, we kiss like painted tigers...
G|---------------------------------------------------------------|
D|---------------------------------------------------------------|
A|-2-2222-6-6666-6-8-8888-9-9999-9-------------------------------| x2
E|---------------------------------------------------------------|

   we are the music makers, consumed with just ourselves.
G|---------------------------------------------------------------|
D|---------------------------------------------------------------|
A|-2-22222-2-22222-6-6666-8-8888-99------------------------------| x1
E|---------------------------------------------------------------|

BRIDGE:

   hey, hey...
G|---------------------------------------------------------------|
D|---------------------------------------------------------------|
A|-2--2--2--2246--6--6--666--------------------------------------|
E|---------------------------------------------------------------|

repeat to end.
Добавлено: 25.05.2016
Другие материалы по этой песне:

Страница создана 20.03.2012
http://primanota.ru/scarling/we-are-the-music-makers-chords.htm
Привет, Гость.
Предлагаем пройти революционный курс по гитаре.
Подарок от PrimaNota.Ru, забирай!