PrimaNota.ru - самый крупный в мире бесплатный архив песенных текстов, аккордов, табулатур и нот


Scar Symmetry - Dreaming 247 - таба, видео

Регистрация Запомнить меня
Войти через:  Facebook Google Twitter Vk Yandex Mail.ru

Scar Symmetry - Dreaming 247 - таба, видео

Печатать
Просмотров: 123
[ code] Artist: Scar Symmetry
Album: Pitch Black Progress
Song: Dreaming 24/7 (intro)

Tabbed By : Rob M

Tuning: Drop A


Guitar 1
C|---------------------------------------------------------------|
F|---------------------------------------------------------------|
D|---------------------------------------------------------------|
A|------------------------------------7-6----7—6h7p6-------------|
E|----------------------------------------8-----------8----------|
A|---2p0h2--0h2p0h2--0h2p0h2-------------------------------------|

Guitar 2 (w/ wah)
C|--12-12-12-12-12-12-12-12----------------------------12-12-12-12-12-|
F|---------------------------12-12-12-12-12-12-12-12------------------|
D|--------------------------------------------------------------------|
A|--------------------------------------------------------------------|
E|--------------------------------------------------------------------|
A|--------------------------------------------------------------------|

Guitar 1
C|---------------------------------------------------------------|
F|---------------------------------------------------------------|
D|---------------------------------------------------------------|
A|----------------------------------7-6-----7-6h7p6----9---------|
E|---------------------------------------8-----------------------|
A|--2p0h2—0h2p0h2—0h2p0h2----------------------------------------|

Guitar 2 (w/wah)
C|-12-13-13-13-13-13-13-16-16-16-16-16p15h16-12-12-12-12-12-12---|
F|---------------------------------------------------------------|
D|---------------------------------------------------------------|
A|---------------------------------------------------------------|
E|---------------------------------------------------------------|
A|---------------------------------------------------------------|

Guitar 1
C|---------------------------------------------------------------|
F|---------------------------------------------------------------|
D|---------------------------------------------------------------|
A|------------------------------------7-6----7—6h7p6-------------|
E|----------------------------------------8-----------8----------|
A|---2p0h2--0h2p0h2--0h2p0h2-------------------------------------|




Guitar 2 (w/wah)
C|-13-13-13-13-13-13---------------------------------------------|
F|--------------------12-12-12-12-12-12--11-^^^^^^^^^^-----------|
D|---------------------------------------------------------------|
A|---------------------------------------------------------------|
E|---------------------------------------------------------------|
A|---------------------------------------------------------------|

Guitar 1
C|---------------------------------------------------------------|
F|---------------------------------------------------------------|
D|---------------------------------------------------------------|
A|----------------------------------7-6-----7-6h7p6----9---------|
E|---------------------------------------8-----------------------|
A|--2p0h2—0h2p0h2—0h2p0h2----------------------------------------|

 Guitar 2 (w/wah)
C|---------------------------------------------------------------|
F|---------------------------------------------------------------|
D|-12-12-12-12-12-12-13-13-13-13-13-13-15-15-15-15-15-16-16-16---|
A|---------------------------------------------------------------|
E|---------------------------------------------------------------|
A|---------------------------------------------------------------|

Guitar 1
C|---------------------------------------------------------------|
F|---------------------------------------------------------------|
D|---------------------------------------------------------------|
A|------------------------------------7-6----7—6h7p6-------------|
E|----------------------------------------8-----------8----------|
A|---2p0h2--0h2p0h2--0h2p0h2-------------------------------------|

Guitar 2 (w/wah)
C|---------------------------------------------------------------|
F|---------------------------------------------------------------|
D|-16-16---13-13-13-13-13-13-15-15-15-15-15-15-16-16-16-16-16-16-|
A|---------------------------------------------------------------|
E|---------------------------------------------------------------|
A|---------------------------------------------------------------|
Guitar 1
C|---------------------------------------------------------------|
F|---------------------------------------------------------------|
D|---------------------------------------------------------------|
A|----------------------------------7-6-----7-6h7p6----9---------|
E|---------------------------------------8-----------------------|
A|--2p0h2—0h2p0h2—0h2p0h2----------------------------------------|
Guitar 2 (w/wah)
C|---------------------------------------------------------------|
F|---------------------------------------------------------------|
D|--12-12-12-12-12-12-13-13-13-13-13-13-11-11-11-11-11-11-11-----|
A|---------------------------------------------------------------|
E|---------------------------------------------------------------|
A|---------------------------------------------------------------|


Guitar 1
C|---------------------------------------------------------------|
F|---------------------------------------------------------------|
D|---------------------------------------------------------------|
A|------------------------------------7-6----7—6h7p6-------------|
E|----------------------------------------8-----------8----------|
A|---2p0h2--0h2p0h2--0h2p0h2-------------------------------------|


Guitar 2 (w/wah)
C|---------------------------------------------------------------|
F|---------------------------------------------------------------|
D|--12-12-12-12-12-12-11-11-11-11-11-11--------------------------|
A|---------------------------------------------------------------|
E|---------------------------------------------------------------|
A|---------------------------------------------------------------|

Guitar 1
C|---------------------------------------------------------------|
F|---------------------------------------------------------------|
D|---------------------------------------------------------------|
A|----------------------------------7-6-----7-6h7p6----9---------|
E|---------------------------------------8-----------------------|
A|--2p0h2—0h2p0h2—0h2p0h2----------------------------------------|

(Both Guitars)
C|---------------------------------------------------------------|
F|---------------------------------------------------------------|
D|-----8------8------8-------------------------------------------|
A|-------8-7----8-7----8-7---------------------------------------|
E|--------------------------8-6----------------------------------|
A|-------------------------------8-5-----------------------------|


I am aware that this tab is not 100% correct (I am working on the rest of the song), and 
would love any suggestions, comments and constructive critisism anyone has because I 
it's a great song and would be even better with a full tab. Email robertmalpas@gmail.com.

Thanks! [/ code]
Добавлено: 21.07.2012
Другие материалы по этой песне:

Страница создана 24.05.2012
http://primanota.ru/scar-symmetry/dreaming-247-chords.htm
Привет, Гость.
Предлагаем пройти революционный курс по гитаре.
Подарок от PrimaNota.Ru, забирай!