PrimaNota.ru - самый крупный в мире бесплатный архив песенных текстов, аккордов, табулатур и нот


Scapegoat Wax - Aisle 10 - аккорды и текст, видео

Регистрация Запомнить меня
Войти через:  Facebook Google Twitter Vk Yandex Mail.ru

Scapegoat Wax - Aisle 10 - аккорды и текст, видео

Печатать
Просмотров: 71
Aisle 10
Scapegoat Wax
Artist : Scapegoat Wax

Track  : Aisle 10 (Hello Alison)

Transcribed By : James Headlam

Tuning : standard (EADGBe) 

  A nice annoyingly addictive tune with a rather strange riff repeated
  throughout the track.   I couldn't find the tab anywhere so I did it 
  myself. Enjoy

   main 

  e|-5---5-------6---6------------------|
  B|-5---5-------6---6------------------|
  G|-5---5-------6---6------------------|
  D|-7---7-------8---8------------------|
  A|-7---7-------8---8------------------|
  E|-5---5-------6---6------------------|
     
   riff#1

  e|-5---3-------6-4-6------------------|
  B|---5--------------------------------|
  G|-------5----------------------------|
  D|------------------------------------|
  A|------------------------------------|
  E|------------------------------------|
     
     
Добавлено: 22.06.2013
Другие материалы по этой песне:
  • Аккорды и текст

Страница создана 22.06.2013
http://primanota.ru/scapegoat-wax/aisle-10-chords.htm
Привет, Гость.
Предлагаем пройти революционный курс по гитаре.
Подарок от PrimaNota.Ru, забирай!