PrimaNota.ru - самый крупный в мире бесплатный архив песенных текстов, аккордов, табулатур и нот


Scandal - Love Pattern - таба, видео

Регистрация Запомнить меня
Войти через:  Facebook Google Twitter Vk Yandex Mail.ru

Scandal - Love Pattern - таба, видео

Печатать
Просмотров: 114
INTRO - Repeat 2X

    Bm7    CM7      Am      Bm7          Bm7    CM7      Am
  
    ^ V ^  v ^ V ^  v ^ v ^  v ^ v ^ v    ^ v ^  v ^ v ^  v ^ v ^ v ^ v ^ v
E|-------------------------------------|-------------------------------------|
B|--3-x-x--5-x-x-x--1-x-x-x--3-x-x-x-x-|--3-x-x--5-x-x-x--1-x-x-x-x-x-x-x-x--|
G|--2-x-x--4-x-x-x--2-x-x-x--2-x-x-x-x-|--2-x-x--4-x-x-x--2-x-x-x-x-x-x-x-x--|
D|--4-x-x--5-x-x-x--2-x-x-x--4-x-x-x-x-|--4-x-x--5-x-x-x--2-x-x-x-x-x-x-x-x--|
A|--2-x-x--3-x-x-x--0-x-x-x--2-x-x-x-x-|--2-x-x--3-x-x-x--0-x-x-x-x-x-x-x-x--|
E|-------------------------------------|-------------------------------------|


Verse:

1. Onnanoko wa itsudatte           yume wo miteitai no
    Koisuru kimochi itsudemo        FUWAFUWA PINK iro
    Mado no soto de SANSAN to        teritsukeru taiyo
    Ano niji wo watatte yukeba        anata ni aeru kana


    Bm7    CM7      Am      Bm7          Bm7    CM7      Am
  
    ^ V ^  v ^ V ^  v ^ v ^  v ^ v ^ v    ^ v ^  v ^ v ^  v ^ v ^ v ^ v ^ v
E|-------------------------------------|-------------------------------------|
B|--3-x-x--5-x-x-x--1-x-x-x--3-x-x-x-x-|--3-x-x--5-x-x-x--1-x-x-x-x-x-x-x-x--|
G|--2-x-x--4-x-x-x--2-x-x-x--2-x-x-x-x-|--2-x-x--4-x-x-x--2-x-x-x-x-x-x-x-x--|
D|--4-x-x--5-x-x-x--2-x-x-x--4-x-x-x-x-|--4-x-x--5-x-x-x--2-x-x-x-x-x-x-x-x--|
A|--2-x-x--3-x-x-x--0-x-x-x--2-x-x-x-x-|--2-x-x--3-x-x-x--0-x-x-x-x-x-x-x-x--|
E|-------------------------------------|-------------------------------------|


REPEAT INTRO


Verse:

2. Itsumoyori OSHARE wo shite       machi wo aruite mitara
    Minareteru keshiki datte            kagayaiteru


    Bm7    CM7      Am      Bm7          Bm7    CM7      Am
    
E|-------------------------------------|-------------------------------------|
B|--3-x-x--5-x-x-x--1-x-x-x--3-x-x-x-x-|--3-x-x--5-x-x-x--1-x-x-x-x-x-x-x-x--|
G|--2-x-x--4-x-x-x--2-x-x-x--2-x-x-x-x-|--2-x-x--4-x-x-x--2-x-x-x-x-x-x-x-x--|
D|--4-x-x--5-x-x-x--2-x-x-x--4-x-x-x-x-|--4-x-x--5-x-x-x--2-x-x-x-x-x-x-x-x--|
A|--2-x-x--3-x-x-x--0-x-x-x--2-x-x-x-x-|--2-x-x--3-x-x-x--0-x-x-x-x-x-x-x-x--|
E|-------------------------------------|-------------------------------------|


CHORUS: (Note: In the PV, Mami and Haruna seems to be using Bm7 and CM7 instead
        of Bm and C but the latter sounds better to me IMO.)

    Itsudatte      kokoro no naka        koi moyou

    G                Bm                  C

E|-------------------------------------|--------------------------------------|
B|-------------------------------------|--------------------------------------|
G|-------------------4-4-4-4-4-4-4-4---|--5-5-5-5-5-5-5-5-5-5-5-5-5-5-5-5-----|
D|-5-5-5-5-5-5-5-5---4-4-4-4-4-4-4-4---|--5-5-5-5-5-5-5-5-5-5-5-5-5-5-5-5-----|
A|-5-5-5-5-5-5-5-5---2-2-2-2-2-2-2-2---|--3-3-3-3-3-3-3-3-3-3-3-3-3-3-3-3-----|
E|-3-3-3-3-3-3-3-3---------------------|--------------------------------------|
 

 
  Kyou mo mata makka na HAATO ga          kobareochisou

    G                Bm                  Am                Bm C  D

E|-------------------------------------|--------------------------------------|
B|-------------------------------------|--------------------------------------|
G|-------------------4-4-4-4-4-4-4-4---|--2-2-2-2-2-2-2-2--2-4--5--7-7-7-7-7--|
D|-5-5-5-5-5-5-5-5---4-4-4-4-4-4-4-4---|--2-2-2-2-2-2-2-2--2-4--5--7-7-7-7-7--|
A|-5-5-5-5-5-5-5-5---2-2-2-2-2-2-2-2---|--0-0-0-0-0-0-0-0--0-2--3--5-5-5-5-5--|
E|-3-3-3-3-3-3-3-3---------------------|--------------------------------------|
 


  Atama no naka  anata no koto de     ippai

    G                Bm                  C

E|-------------------------------------|--------------------------------------|
B|-------------------------------------|--------------------------------------|
G|-------------------4-4-4-4-4-4-4-4---|--5-5-5-5-5-5-5-5-5-5-5-5-5-5-5-5-----|
D|-5-5-5-5-5-5-5-5---4-4-4-4-4-4-4-4---|--5-5-5-5-5-5-5-5-5-5-5-5-5-5-5-5-----|
A|-5-5-5-5-5-5-5-5---2-2-2-2-2-2-2-2---|--3-3-3-3-3-3-3-3-3-3-3-3-3-3-3-3-----|
E|-3-3-3-3-3-3-3-3---------------------|--------------------------------------|
 


  Donna toki mo anata shidai        nante            Tanjun na atashi

    G                Bm                  Am                  C Bm  G Am 

E|-------------------------------------|--------------------------------------|
B|-------------------------------------|--------------------------------------|
G|-------------------4-4-4-4-4-4-4-4---|--2-2-2-2-2-2-2-2--2--5-x-4-x-----2---|
D|-5-5-5-5-5-5-5-5---4-4-4-4-4-4-4-4---|--2-2-2-2-2-2-2-2--2--5-x-4-x-5-x-2---|
A|-5-5-5-5-5-5-5-5---2-2-2-2-2-2-2-2---|--0-0-0-0-0-0-0-0--0--3-x-2-x-5-x-0---|
E|-3-3-3-3-3-3-3-3---------------------|------------------------------3-x-----|



------------------------------------------------------------------------------

Rhythm fill - Guitar 2 - Play in chorus except for 2nd beat in last measure of
chorus

E|----------------------------------------------------------------------------|
B|----------------------------------------------------------------------------|
G|----------------------------------------------------------------------------|
D|---12h14p12--12h14p12--12h14p12----12h14p12--12h14p12--12h14p12-------------|
A|-----------12--------12--------12----------12--------12--------12-----------|
E|----------------------------------------------------------------------------|


------------------------------------------------------------------------------

REPEAT INTRO


Verse: same chords/pattern as verse 1 and 2

3. Amefuri kyou no kibun wa                Mizuiro DOTTO KARAA
    Itsuni nareba kono kimochi            tsutawaru no deshou ka

4. Nandomo keitai hiraki                 chakushin wo matteru
    Honno sasai na koto dake de           Kokoro BURUU ni naru

    Bm7    CM7      Am      Bm7          Bm7    CM7      Am
    
E|-------------------------------------|-------------------------------------|
B|--3-x-x--5-x-x-x--1-x-x-x--3-x-x-x-x-|--3-x-x--5-x-x-x--1-x-x-x-x-x-x-x-x--|
G|--2-x-x--4-x-x-x--2-x-x-x--2-x-x-x-x-|--2-x-x--4-x-x-x--2-x-x-x-x-x-x-x-x--|
D|--4-x-x--5-x-x-x--2-x-x-x--4-x-x-x-x-|--4-x-x--5-x-x-x--2-x-x-x-x-x-x-x-x--|
A|--2-x-x--3-x-x-x--0-x-x-x--2-x-x-x-x-|--2-x-x--3-x-x-x--0-x-x-x-x-x-x-x-x--|
E|-------------------------------------|-------------------------------------|



REPEAT CHORUS twice w/ below lyrics

Aitakute nee aitakute koi moyou
Ichibyouzutsu fukurami tsuzukeru kimochi kizuite
ORENJI no yuuyake ni te wo nobashitara
Sukoshizutsu ashi mo karuku natta you na ki ga shita no

Itsudatte sou nijiiro no koi moyou
Kizuitara sukoshizutsu ugoki hajimeru kimochi
Hashiri dasu to tomarenai otomegokoro
Doushiyou itsu no aida ni ka anata….
Me no mae ni iru no


OUTRO

    Bm7    CM7      Am      Bm7          Bm7    CM7      Am
    
E|-------------------------------------|-------------------------------------|
B|--3-x-x--5-x-x-x--1-x-x-x--3-x-x-x-x-|--3-x-x--5-x-x-x--1-x-x-x-x-x-x-x-x--|
G|--2-x-x--4-x-x-x--2-x-x-x--2-x-x-x-x-|--2-x-x--4-x-x-x--2-x-x-x-x-x-x-x-x--|
D|--4-x-x--5-x-x-x--2-x-x-x--4-x-x-x-x-|--4-x-x--5-x-x-x--2-x-x-x-x-x-x-x-x--|
A|--2-x-x--3-x-x-x--0-x-x-x--2-x-x-x-x-|--2-x-x--3-x-x-x--0-x-x-x-x-x-x-x-x--|
E|-------------------------------------|-------------------------------------|

    Bm7    CM7      Am      Bm7          Bm7    CM7      Am                G
    
E|-------------------------------------|-----------------------------------3-|
B|--3-x-x--5-x-x-x--1-x-x-x--3-x-x-x-x-|--3-x-x--5-x-x-x--1-x-x-x-x-x-x--x-3-|
G|--2-x-x--4-x-x-x--2-x-x-x--2-x-x-x-x-|--2-x-x--4-x-x-x--2-x-x-x-x-x-x--x-4-|
D|--4-x-x--5-x-x-x--2-x-x-x--4-x-x-x-x-|--4-x-x--5-x-x-x--2-x-x-x-x-x-x--x-5-|
A|--2-x-x--3-x-x-x--0-x-x-x--2-x-x-x-x-|--2-x-x--3-x-x-x--0-x-x-x-x-x-x--x-5-|
E|-------------------------------------|-----------------------------------3-|
Добавлено: 15.05.2012
Другие материалы по этой песне:
  • Аккорды и текст

Страница создана 15.05.2012
http://primanota.ru/scandal/love-pattern-chords.htm
Привет, Гость.
Предлагаем пройти революционный курс по гитаре.
Подарок от PrimaNota.Ru, забирай!