PrimaNota.ru - самый крупный в мире бесплатный архив песенных текстов, аккордов, табулатур и нот


Scabs - Crime Wave - бас-таба, видео

Регистрация Запомнить меня
Войти через:  Facebook Google Twitter Vk Yandex Mail.ru

Scabs - Crime Wave - бас-таба, видео

Печатать
Просмотров: 134
Уроки эстрадного вокала в Санкт-Петербурге
Intro + couplet:

G----------------------------------|
D----------------------------------|
A-7777777755555555--------77777777-|
E-----------------55555555---------|

Chorus:

G-----------------------------------------------------------------|
D-----------------------------------------------------------------|
A-777777777--5----555555557--5--------------57----777777777777777-|
E----------57--------------57-----5555555557----------------------|

Break:

G-------------------|
D-------------------|
A---7---5-----------|
E-7---7---555555555-|

During guitar solo:

G---------------------------------|
D---------------------------------|
A7777777755555555--------77777777-|
E----------------55555555---------|    (3 times)

G--------77777777-----------------|
D----------------77777777---------|
A77777777----------------77777777-|
E---------------------------------|

End:

G----------------------------------|
D----------------------------------|
A-7777777755555555------------5555-|
E-----------------555555557777-----|

G
D
A-7777777755555555------------555-7-|
E-----------------55555555777-------|
Добавлено: 19.07.2012
Другие материалы по этой песне:
  • Аккорды и текст

Страница создана 19.07.2012
http://primanota.ru/scabs/crime-wave-chords.htm
Привет, Гость.
Предлагаем пройти революционный курс по гитаре.
Подарок от PrimaNota.Ru, забирай!