PrimaNota.ru - самый крупный в мире бесплатный архив песенных текстов, аккордов, табулатур и нот


Saydie - Vylet - таба, бас-таба, видео

Регистрация Запомнить меня
Войти через:  Facebook Google Twitter Vk Yandex Mail.ru

Saydie - Vylet - таба, бас-таба, видео

Печатать
Просмотров: 214
Уроки эстрадного вокала в Санкт-Петербурге
saydie
vylet
tabbed by: Rey ian Cabanganan(reyianc@yahoo.com)

mga chong..ayoz tong kanta na to..

intro/verse
E|-----------------------------------------------------|
B|-----------------------------------------------------|
G|-------------------------------------33--------------|
D|-----77-33-55------------------77-33-----------------|
A|--55-----------888-77-5-0---55----------888-77-5-0---|
D|---------------888-77-5-0---------------888-77-5-0---|
mejo onti lng nmn ung parts ng lead kya diko na sinama,
chorus: 
E|------------------------------------------|
B|------------------------------------------|
G|------------------------------------------|2 times yan, kayu na bhala umintindi
D|-55---888--7r0-7h8--7r0--7h8---0-7-8-7----|tama yan.
A|-55---888--7r0-7h8--7r0--7h8---0-7-8-7----|
D|-55---888--7r0-7h8--7r0--7h8---0-7-8-7----|
             mejo bilisan lng ng onti dito..

bridge:pasok kagad to pgkatapos ng chorus..paki pakinggan nlng po.
E|-------------------------------|
B|-------------------------------|
G|-------------------------------|
D|-----------------------88---5--|
A|--00--8r0--0-6-0-5-------------|
D|--00--8r0--0-6-0-5-------------|

E|--------------------------------------------------------|2 times
B|--------------------------------------------------------|
G|--------------------------------------------------------|
D|------777--333-222-----2-0--------555-222---------------|
A|--555---------------55-------333----------555--33--5-0--|
D|--------------------------------------------------------|
tapos chorus uli.

sunod to..
E|---------------------------------------------|
B|---------------------------------------------|
G|---------------------------------------------|
D|-88888888888--7r0-7h8--7r0--7h8---0-7-8-7----|
A|-88888888888--7r0-7h8--7r0--7h8---0-7-8-7----|
D|-88888888888--7r0-7h8--7r0--7h8---0-7-8-7----|
next to...mejo palm muted.
E|-----------------------------------|
B|-----------------------------------|
G|-----------------------------------|2 times to. tapos chorus.
D|-----------------------------------|tapos balik sa intro...tapos!
A|---55555555---88888888----3333333--|
D|---55555555---88888888----3333333--|

            

maraming salamat po. pakiintindi nalang po at pakinggan ng mabuti yung song.
khoital reaction! hi sa mahal ko na si ingrid!
mga tanong? email..reyianc@yahoo.com
Добавлено: 05.04.2012
Другие материалы по этой песне:
  • Аккорды и текст

Страница создана 25.03.2012
http://primanota.ru/saydie/vylet-chords.htm
Привет, Гость.
Предлагаем пройти революционный курс по гитаре.
Подарок от PrimaNota.Ru, забирай!