PrimaNota.ru - самый крупный в мире бесплатный архив песенных текстов, аккордов, табулатур и нот


Saydie - Lush - таба, бас-таба, видео

Регистрация Запомнить меня
Войти через:  Facebook Google Twitter Vk Yandex Mail.ru

Saydie - Lush - таба, бас-таба, видео

Печатать
Просмотров: 186
title:LUSH
band:saydie
tabbed by:civram gatdula


Drop D tuning ( D-A-D-G-B-e )

astig to astig to paki rate

Key
b = Bend
h = Hammer-On note
p = Pull-Off note
/ = Slide Forward
\ = Slide Backward
pm = Palm Mute

2 Guitars

Guitar 1:
Intro/:
e-----------------------------------------------------------------------------|
B-------------7h8-7h8-8-------------7-8-10-8-7\0-------------2-3-2-5-3-2-0----|
G-----------------------------------------------------------------------------|
D---9-9—-9----------------9-9—-9-------------------5-5--5---------------------|
A---9-9—-9----------------9-9—-9-------------------5-5--5---------------------|
D---9-9—-9----------------9-9—-9-------------------5-5--5---------------------|
   (pm)(pm)              (pm) (pm)                (pm) (pm)

---------------------------|
--------------2-3-2-5-3----|
------------------------2--|
----7-7—-7-----------------|
----7-7—-7-----------------|
----7-7—-7-----------------|
   (pm) (pm)

Verse :
Guitar 2:

e---------------------------------------------------------------------------|
B—7-7—-7—-7-7----7h8-7h8-8----7-7—-7—-7-7----7-8-10-8-7\0----3-3—-3--3-3----|
G---------------------------------------------------------------------------|
D---------------------------------------------------------------------------|
A---------------------------------------------------------------------------|
D---------------------------------------------------------------------------|

----------------------------------------------|
--2-3-2-5-3-2-0----5-5--5--5-5----2-3-2-5-3---|
--------------------------------------------2-|  (Repeat Twice)
----------------------------------------------|
----------------------------------------------|
----------------------------------------------|

Guitar 1:

e-----------------------------------------------------------------------------|
B-------------7h8-7h8-8-------------7-8-10-8-7\0-------------2-3-2-5-3-2-0----|
G-----------------------------------------------------------------------------|
D---9-9—-9----------------9-9—-9-------------------5-5--5---------------------|
A---9-9—-9----------------9-9—-9-------------------5-5--5---------------------|
D---9-9—-9----------------9-9—-9-------------------5-5--5---------------------|
   (pm)(pm)              (pm) (pm)                (pm) (pm)

---------------------------|
--------------2-3-2-5-3----|
------------------------2—-|  (Repeat Twice)
----7-7—-7-----------------|
----7-7—-7-----------------|
----7-7—-7-----------------|
   (pm) (pm)

Chorus :
Guitar 2: (Repeat twice)
e-------------------------------------------------------------------------------|
B--10-8-7-8-7---7h8-7h8-8---10-8-7-8-7---7-8-10-8-7\3---3—3-3-3/5-5-5-5/7-7-7/8-|
G-------------------------------------------------------------------------------|
D---—---------------------------------------------------------------------------|
A—--—---------------------------------------------------------------------------|
D—--—---------------------------------------------------------------------------|

Guitar 1: (Repeat twice)
e---------------------------------------------------------------|
B---------------------------------------------------------------|
G---------------------------------------9-7---------------------|
D—-9-9—-9---7-7—-5-7-5-7-5----9-9—-9----9-7-7-5-5--7-7--5-5-7-7-|
A—-9-9—-9---7-7—-5-7-5-7-5----9-9—-9----7-5-7-5-5--7-7--5-5-7-7-|
D—-9-9—-9---7-7—-5-7-5-7-5----9-9—-9--------7-5-5--7-7--5-5-7-7-|

(Do Verse 3 times [ guitar 1 & 2 ])

(Do chorus [ Guitar 1 & 2 ])
Guitar 1:
e----------------------------------------------------------------------------|
B----------------------------------------------------------------------------|
G----------------------------------------------------------------------------|
D—-9-9-9-9-9---7-7-7-7-7---0—-0-0-0-0---------7-------0--0-0-0-------7-------|
A—-9-9-9-9-9---7-7-7-7-7---0—-0-0-0-0----7-9----9-7\5—0--0-0-0--7-9----9-7\5-|
D—-9-9-9-9-9---7-7-7-7-7---0—-0-0-0-0-----------------0--0-0-0---------------|
                              (pm) (pm)                 (pm)

e------------------------------------------------------------------|
B------------------------------------------------------------------|
G------------------------------------------------------------------|
D—-9-9-9-9-9---7-7-7-7-7---0—-0-0-0-0---------7-------0--0-0-0—-0--|
A—-9-9-9-9-9---7-7-7-7-7---0—-0-0-0-0----7-9----9-7\5-0--0-0-0—-0--|
D—-9-9-9-9-9---7-7-7-7-7---0—-0-0-0-0-----------------0--0-0-0—-0--|
                              (pm) (pm)                  (pm)

e----------------------------|
B----------------------------|
G----------------------------|
D---16---11—12-14----16---17-| (repeat twice)
A----------------------------|
D----------------------------|

e--------------------------------------------------------|
B--------------------------------------------------------|
G--------------------------------------------------------|
D---16-16-16-11-11-11—12-12-12-14-14-14----16-16-16---17-| (repeat twice)
A--------------------------------------------------------|
D--------------------------------------------------------|

e-------------------------------------------|
B-------------------------------------------|
G-------------------------------------------|
D---9-9-7-9---9p7---------7-7—-9---5-5—-7---|  (repeat 4 times)
A---9-9-7-9------9-7-10---7-7—-x---5-5—-x---|
D---9-9-7-9---------------7-7—-x---5-5—-x---|

e----------------------------------------------------------------------------|
B----------------------------------------------------------------------------|
G----------------------------------------------------------------------------|
D—-9-9-9-9-9---7-7-7-7-7---0—-0-0-0-0---------7-------0--0-0-0-------7-------|
A—-9-9-9-9-9---7-7-7-7-7---0—-0-0-0-0----7-9----9-7\5—0--0-0-0--7-9----9-7\5-|
D—-9-9-9-9-9---7-7-7-7-7---0—-0-0-0-0-----------------0--0-0-0---------------|
                              (pm) (pm)                 (pm)
(repeat this 2 times)

e-------------------------------------               -------|
B-------------------------------------               -------|
G-------------------------------------               -------|
D---0-00-00-0-00-00-0-00-00-0-00-00--- Repeat twice  ---0---|
A---0-00-00-0-00-00-0-00-00-0-00-00---               ---0---|
D---0-00-00-0-00-00-0-00-00-0-00-00---               ---0---|
    (pm) (pm) (pm) (pm) (pm) (pm)

e------------------------------------------------|
B------------------------------------------------|
G------------------------------------------------|
D---9-7-9-7-10---9-7-9-7-10---9-7-9-7-10---7-5-7-|
A---9-7-9-7-10---9-7-9-7-10---9-7-9-7-10---7-5-7-|
D---9-7-9-7-10---9-7-9-7-10---9-7-9-7-10---7-5-7-|

e-----------------------------------------------------|
B-----------------------------------------------------|
G-----------------------------------------------------|
D---9-7-9-7-10---9-7-9-7-10---9-7-9-7-10---12-12-12---|
A---9-7-9-7-10---9-7-9-7-10---9-7-9-7-10---12-12-12---|
D---9-7-9-7-10---9-7-9-7-10---9-7-9-7-10---12-12-12---|

Guitar 2: (Repeat twice)
e-------------------------------------------------------------------------------|
B--10-8-7-8-7---7h8-7h8-8---10-8-7-8-7---7-8-10-8-7\3---3—3-3-3/5-5-5-5/7-7-7/8-|
G-------------------------------------------------------------------------------|
D---—---------------------------------------------------------------------------|
A—--—---------------------------------------------------------------------------|
D—--—---------------------------------------------------------------------------|

Guitar 1: (repeat twice)
e---------------------------------------------------------------|
B---------------------------------------------------------------|
G---------------------------------------9-7---------------------|
D—-9-9—-9---7-7—-5-7-5-7-5----9-9—-9----9-7-7-5-5--7-7--5-5-7-7-|
A—-9-9—-9---7-7—-5-7-5-7-5----9-9—-9----7-5-7-5-5--7-7--5-5-7-7-|
D—-9-9—-9---7-7—-5-7-5-7-5----9-9—-9--------7-5-5--7-7--5-5-7-7-|

Guitar 2:

e---------------------------------------------------------------------------|
B—7-7—-7—-7-7----7h8-7h8-8----7-7—-7—-7-7----7-8-10-8-7\0----3-3—-3--3-3----|
G---------------------------------------------------------------------------|
D---------------------------------------------------------------------------|
A---------------------------------------------------------------------------|
D---------------------------------------------------------------------------|

----------------------------------------------|
--2-3-2-5-3-2-0----5-5--5--5-5----2-3-2-5-3---|
--------------------------------------------2-|
----------------------------------------------|
----------------------------------------------|
----------------------------------------------|

Guitar 1:

e-----------------------------------------------------------------------------|
B-------------7h8-7h8-8-------------7-8-10-8-7\0-------------2-3-2-5-3-2-0----|
G-----------------------------------------------------------------------------|
D---9-9—-9----------------9-9—-9-------------------5-5--5---------------------|
A---9-9—-9----------------9-9—-9-------------------5-5--5---------------------|
D---9-9—-9----------------9-9—-9-------------------5-5--5---------------------|
   (pm)(pm)              (pm) (pm)                (pm) (pm)

---------------------------|
--------------2-3-2-5-3----|
------------------------2—-|
----7-7—-7-----------------|
----7-7—-7-----------------|
----7-7—-7-----------------|
   (pm) (pm)
Добавлено: 26.02.2012
Другие материалы по этой песне:
  • Аккорды и текст

Страница создана 26.02.2012
http://primanota.ru/saydie/lush-chords.htm
Привет, Гость.
Предлагаем пройти революционный курс по гитаре.
Подарок от PrimaNota.Ru, забирай!