PrimaNota.ru - самый крупный в мире бесплатный архив песенных текстов, аккордов, табулатур и нот


Say Chance - This Far - таба, видео

Регистрация Запомнить меня
Войти через:  Facebook Google Twitter Vk Yandex Mail.ru

Say Chance - This Far - таба, видео

Печатать
Просмотров: 104
-------------------------------------------------------------------------------
                                       THIS FAR - Say Chance
-------------------------------------------------------------------------------


http://www.youtube.com/watch?v=OotxiTnsFSk&feature=feedu


Tabbed by: Kelly Rosenthal
Written by: Kelly Rosenthal, Maddie Freeman & Taylor Broom


http://www.youtube.com/KellyIsMusical
http://www.facebook.com/KellyIsMusical
http://www.facebook.com/SayChanceMusic
http://www.twitter.com/SayChanceBand


For strumming and feel, watch the video below:
http://www.youtube.com/watch?v=OotxiTnsFSk&feature=feedu



THIS FAR by SAY CHANCE



Tuning: Half-Step Down: Eb Ab Db Gb Bb eb



Intro/Verse:


Section 1:

     Am7       G    G7     Fmaj7                   E7    Abdim7
e|----8--------7----7--------5--------5------------4-------7-------------|
B|----8--------8----6--------5--------5------------3-------6-------------|
G|----9--------7----7--------5--------5------------4-------7-------------|
D|----7--------5----5--------3---5/7-----7\5p3-----2-------6-------------|
A|-----------------------------------------------------------------------|
E|-----------------------------------------------------------------------|


Section 2:

e|----8--------10----7-------8----7----5---------------------------------|
B|----8---------8----8-------5----5----5--------9----------9-------------|
G|----9---------7---10-------5----5----5--------7----------9-------------|
D|--6/7---------9----9-------7----7----7--------6----------9-------------|
A|----------------------------------------------7---------11-------------|
E|-----------------------------------------------------------------------|



Verse (section 1) x2

Am7        G    G7        Fmaj7        E7      Abdim7




Chorus:

     Am7       G    G7        F          E      Abdim7
e|----------------------------------------------------------------------|
B|----5--------3----3---------1-----------------------------------------|
G|----5--------4----4---------2----------1--------4---------------------| x2
D|----5--------5----3---------3----------2--------3---------------------|
A|----7--------5----5---------3----------2--------5---------------------|
E|----5--------3----3---------1----------0--------4---------------------|



Verse x3



Chorus x2 (strummed instead of finger-picked)




Instrumental:
     Am7       D9      Gmaj7    Bhalfdim    Cmaj7      D7      Gmaj7
e|-------------------------------------------------------------------------|
B|----5---------5--------3----------3---------5---------7--------3---3--3--|
G|----5---------5--------4----------2---------4---------5--------4---2--2h4|
D|----5---------4--------4----------3---------5---------7--------4---------|
A|----x---------5--------5----------2---------3---------5--------5---------|
E|----5------------------3---------------------------------------3---3--3--|



Bridge: 
                              
e|-------------------------------------------------------2------------------|
B|---5-----5-----3-------3------5-----7-----8------3-----3-----3---3--3-3---|
G|---5-----5-----4-------2------4-----5-----7------5-----5-----5---4--2-2h4-|
D|---5-----4-----4-------3------5-----7-----9------5-----0-----5---5--------|
A|---x-----5-----5-------2------3-----5-----7------x-----------x---x--------|
E|-3/5-----------3--------------------------0------5-----------3---3--3-3---|



Instrumental:

      Am7       G    G7     Fmaj7            E7    
e|-----8--------7----7--------5--------4--4--4--4--4---\-\--------|
B|-----8--------8----6--------5--------3--3--3--3--3---\-\--------|
G|-----9--------7----7--------5--------4--4--4--4--4---\-\--------|
D|----/7--------5----5--------3--------2--2--2--2--2---\-\--------|
A|-----------------------------------------------------\-\--------|
E|-----------------------------------------------------\-\--------|



Chorus x4


Outro:

e|----8--------10----7-------8----7----5-----------------------------------|
B|----8---------8----8-------5----5----5--------9----------9-----10~-------|
G|----9---------7---10-------5----5----5--------7----------9------9~-------|
D|---/7---------9----9-------7----7----7--------6----------9-----10~-------|
A|----------------------------------------------7---------11------0~-------|
E|-------------------------------------------------------------------------|



For questions/comments, hit me up at http://www.twitter.com/KellyRosenthal



Lyrics:

VERSE:
You tried to take control that I steered
But I've got my wheel, and I'm not letting go.
You lied, and now I'm drying my tears.
Without my fears, I'm taking back my hold.

CHORUS:
Now I realize it never should've gone this far.
'Cause I've cried through being lied to,
And I'm over being torn apart.
You can listen and might try to understand,
Like you ever gave a damn.
Baby, better's never giving you a chance.

VERSE 2:
You made it hard to find direction
'Cause that false connection was too hard to ignore.
I caved into your sick affection.
A rear view reflection of you falling back
As I'm on my way forward.

CHORUS

BRIDGE:
I know you never were about me.
It's easier to doubt me
Than to let me let you go.
You'll start to bleed 'cause you can't do your part.
You see, your sweet little blade was always so sharp.

CHORUS x2


************************************
| \   slide down
| /   slide up
| h   hammer-on
| p   pull-off
************************************


http://www.youtube.com/SayChanceMusic
Добавлено: 05.04.2012
Вам также может быть интересно:
Другие материалы по этой песне:
  • Аккорды и текст

Страница создана 05.04.2012
http://primanota.ru/say-chance/this-far-chords.htm
Привет, Гость.
Предлагаем пройти революционный курс по гитаре.
Подарок от PrimaNota.Ru, забирай!