PrimaNota.ru - самый крупный в мире бесплатный архив песенных текстов, аккордов, табулатур и нот


Say Anything - This Is Fucking Ecstacy - бас-таба, видео

Регистрация Запомнить меня
Войти через:  Facebook Google Twitter Vk Yandex Mail.ru

Say Anything - This Is Fucking Ecstacy - бас-таба, видео

Печатать
Просмотров: 79
Say Anything
This is Fucking Ecstacy
In Defense of the Genre

Standard tuning

/-Slide
h-hammer on
p-pull off

Verse 1
G----3--3-------------------------------------------------------|
D--1--1-------1-11---0-0---------------0--3-33-3-3-3-3-------0--|
A-------------------------3-3--0-1--3-------------------1--3----|
E---------------------------------------------------------------|

G----------------------------------------5/7-5--3-5-3-----------|
D--1-11--0-0--------------0--3-33-3-3-3---------------5---------|
A-------------3-3--0-1-3----------------------------------------|
E---------------------------------------------------------------|

G-----------------------------------------------------------|
D--1-11--0-0--------------0--3—33-3-3---------3-------------|
A-------------3-3--0-1-3--------------0-1-3/5----5-3-1------|
E-----------------------------------------------------------|

G------------------------------------------3-------------|
D--1-1--0-0-------1-0-1---3-33-3-3-3-3---5---5-----------|
A------------3-3-----------------------------------------|
E--------------------------------------------------------|

Pre-Chorus
G--------------------------------------------------------------|
D--------------------------------------------------------------|
A---6-66------10-1010------6-66-------10-1010--10--10-88-------|
E--------------------------------------------------------------|


Chorus
Repeat 4X
G----------------------------------------------------------|
D----------------------------------------------------------|
A-------5---5----5----5----5---4-7--4-7---4-7---4-7--4-7---|
E---3-6--3-6--3-6--3-6--3-6--6----6-----6-----6-----6------|


Verse 2
G--------------------------------------------------------|
D--1-11--0-0--------------0--3-33-3-3-3-3--1-0-----------|
A-------------3-3--0-1-3-----------------------3--1------|
E--------------------------------------------------------|

G----------------------------------------------------|
D--1-11--0-0--------------0--3-33-3-3-3-3------0-3---|
A-------------3-3--0-1-3-------------------1-3-------|
E----------------------------------------------------|

G--------------------------------------------------------------|
D--1-11--0-0--------------0--3—33--3--3----------3-------------|
A-------------3-3--0-1-3-----------------0-1-3/5----5-3-1------|
E--------------------------------------------------------------|

G-------------------------------------7-5--3-5-3----------|
D---1-1--0-0------------0--3-33-3-3-3------------5--------|
A-------------3-3--1-3------------------------------------|
E---------------------------------------------------------|

Prechorus
G---------------------------------------------------------------|
D----------------------8/10-------------------------------------|
A---6-66------10-1010--------6-66------10-1010---10--88--88-----|
E---------------------------------------------------------------|


Chorus (same as above, no variations)
Repeat 4X

Bridge
G-------------------------------------------------------------------------|
D---------------------------------------------------------------3-5-3-----|
A--6-6-6---6-6-6---3-3-3---3-3-3---6-6-6---6-6-6---3-3-3---5-6---------5--|
E-------------------------------------------------------------------------|

G-----------------------3h5-3-------------------------------------3-5----|
D----------------------------5-3-------------------------------3-5----5--|
A--6-6-6---6-6-6---3-3-3--------5---6-6-6---66---6---33-33---3-----------|
E------------------------------------------------------------------------|

Outro
Repeat 4X
G--3---3---0---0--------------------------|
D----1---1---1---1------------------------|
A-------------------3---3---1---1---------|
E---------------------3---3---3---3-------|
Добавлено: 02.06.2012
Другие материалы по этой песне:
  • Аккорды и текст

Страница создана 02.06.2012
http://primanota.ru/say-anything/this-is-fucking-ecstacy-chords.htm
Привет, Гость.
Предлагаем пройти революционный курс по гитаре.
Подарок от PrimaNota.Ru, забирай!