PrimaNota.ru - самый крупный в мире бесплатный архив песенных текстов, аккордов, табулатур и нот


Say Anything - Metal Now - текст песни, таба, видео

Регистрация Запомнить меня
Войти через:  Facebook Google Twitter Vk Yandex Mail.ru

Say Anything - Metal Now - текст песни, таба, видео

Печатать
Просмотров: 169
Artist: Say Anything
Song: Metal Now
Tuning: Standard

**IF IT DOES NOT SOUND RIGHT, TUNE YOUR GUITAR AGAIN!

Intro:
|----------------|----------------|----------------|----------------|
|----------------|----------------|----------------|----------------|
|----------------|----------------|----------------|----------------|
|--------5-5-5-5-|--------5-7-7-7-|--------5-5-5-5-|----------------| x4
|5-5-6-7---------|5-5-6-7---------|5-5-6-7---------|3-3-3-3-0-0-0-0-|
|----------------|----------------|----------------|----------------|

Chorus:
|----------------|----------------|----------------|----------------|
|----------------|----------------|----------------|----------7-7-7-|
|----------------|----------------|----------------|----------7-7-7-|
|----------------|9-9-9-9-7-7-7-7-|9-9-9-9-7-7-7-7-|----------7-7-7-|
|5-5-5-5-9-9-9-9-|7-7-7-7-5-5-5-5-|7-7-7-7-5-5-5-5-|5-5-5-5---5-5-5-|
|3-3-3-3-7-7-7-7-|----------------|----------------|3-3-3-3---------|

|----------------|----------------|----------------|----------------|
|----------------|----------------|----------------|----------------|
|----------------|----------------|----------------|----------------|
|----------------|9-9-9-9-7-7-7-7-|9-9-9-9-7-7-7-7-|5---------------|
|5-5-5-5-7-7-7-7-|7-7-7-7-5-5-5-5-|7-7-7-7-5-5-5-5-|5---------------|
|3-3-3-3-5-5-5-5-|----------------|----------------|3---------------|

Distorted Intro:           for 7s
|----------------|--------(gradual|----------------|----------------|
|----------------|----------slight|----------------|----------------|
|----------------|----------bend)-|----------------|----------------|
|--------5-5-5-5-|--------5-7-7-7-|--------5-5-5-5-|----------------|
|5-5-6-7---------|5-5-6-7---------|5-5-6-7---------|3-3-3-3-0-0-0-0-|
|----------------|----------------|----------------|----------------|

|----------------|----------------|----------------|-----------[5]--|
|----------------|----------------|----------------|-----------[5]--|
|--------7-7-7-7-|--------7-9-9-9-|----------------|-----------[5]--|
|7-7-8-9-5-5-5-5-|7-7-8-9-5-7-7-7-|5-5-5-2-2-2-2-2-|9-9-9-7-9--[5]--|
|5-5-6-7---------|5-5-6-7---------|3-3-3-0-0-0-0-0-|7-7-7-5-7-------|
|----------------|----------------|----------------|----------------|

Verse:
|----------------|----------------|----------------|----------------|
|----------------|----------------|----------------|----------------|
|--------7-7-7-7-|--------7-9-9-9-|--------7-7-7-7-|----------------|
|7-7-8-9-5-5-5-5-|7-7-8-9-5-7-7-7-|7-7-8-9-5-5-5-5-|5-5-5-5-2-2-2-2-| x2
|5-5-6-7---------|5-5-6-7---------|5-5-6-7---------|3-3-3-3-0-0-0-0-|
|----------------|----------------|----------------|----------------|

|----------------|----------------|----------------|---------xxxxxxx|
|----------------|----------------|----------------|---------xxxxxxx|
|--------7-7-7-7-|--------7-9-9-9-|--------7-7-7-7-|---------xxxxxxx|
|7-7-8-9-5-5-5-5-|7-7-8-9-5-7-7-7-|7-7-8-9-5-5-5-5-|5-5-5-5-2xxxxxxx| 
|5-5-6-7---------|5-5-6-7---------|5-5-6-7---------|3-3-3-3-0xxxxxxx|
|----------------|----------------|----------------|---------xxxxxxx|

Chorus:
|----------------|----------------|----------------|----------------|
|----------------|----------------|----------------|----------7-7-7-|
|----------------|----------------|----------------|----------7-7-7-|
|----------------|9-9-9-9-7-7-7-7-|9-9-9-9-7-7-7-7-|----------7-7-7-|
|5-5-5-5-9-9-9-9-|7-7-7-7-5-5-5-5-|7-7-7-7-5-5-5-5-|5-5-5-5---5-5-5-|
|3-3-3-3-7-7-7-7-|----------------|----------------|3-3-3-3---------|

|----------------|----------------|----------------|----------------|
|----------------|----------------|----------------|----------------|
|----------------|----------------|----------------|----------------|
|----------------|9-9-9-9-7-7-7-7-|9-9-9-9-7-7-7-7-|--------------x-|
|5-5-5-5-7-7-7-7-|7-7-7-7-5-5-5-5-|7-7-7-7-5-5-5-5-|5-5-5-5-5-5-5-x-|
|3-3-3-3-5-5-5-5-|----------------|----------------|3-3-3-3-3-3-3-x-|

Break:
|----------------|----------------|----------------|----------------|
|0-0-0-0-0-0-0-0-|0-0-0-0-0-0-0-0-|0-0-0-0-0-0-0-0-|0-0-0-0-0-0-0-0-|
|6-6-6-6-6-6-6-6-|6-6-6-6-6-6-6-6-|6-6-6-6-6-6-6-6-|6-6-6-6-6-6-6-6-|
|7-7-7-7-7-7-7-7-|7-7-7-7-7-7-7-7-|7-7-7-7-7-7-7-7-|7-7-7-7-7-7-7-7-|
|----------------|----------------|----------------|----------------|
|----------------|----------------|----------------|----------------|

|----------6-----|----------------|----------6-----|----3-------3---|
|8---8---8---8---|8---8-----------|8---8---8---8---|--3-------5-----|
|--6---6-------6-|--6---5-3-5-3-0-|--6---6-------6-|3-------5-------|
|----------------|----------------|----------------|----------------|
|----------------|----------------|----------------|----------------|
|----------------|----------------|----------------|----------------|

|----------6-----|--------6-8-6---|68686-----------|----------------|
|8---8---8---8---|8---8---------8-|------8---------|11--------------|
|--6---6-------6-|--6---6---------|----------------|----------------|
|----------------|----------------|----------------|----------------|
|----------------|----------------|----------------|----------------|
|----------------|----------------|----------------|----------------|

|----------------|----------------|----------------|----------------|
|----------------|----------------|----------------|----------------|
|----------------|----------------|----------------|----------------|
|--55----5-------|--55----5-------|--55----5--xxxxx|3-3-3-3-6-6-6-6-| x2
|----4-----4-----|----4-----------|----4-----4xxxxx|1-1-1-1-4-4-4-4-|
|3-----3---------|3-----3---7-----|3-----3----xxxxx|----------------|

|----------------|
|----------------|
|----------------|
|7-7-7-7-xxxxxxxx|
|5-5-5-5-xxxxxxxx|
|----------------|

Chorus:
|----------------|----------------|----------------|----------------|
|----------------|----------------|----------------|----------7-7-7-|
|----------------|----------------|----------------|----------7-7-7-|
|----------------|9-9-9-9-7-7-7-7-|9-9-9-9-7-7-7-7-|----------7-7-7-|
|5-5-5-5-9-9-9-9-|7-7-7-7-5-5-5-5-|7-7-7-7-5-5-5-5-|5-5-5-5---5-5-5-|
|3-3-3-3-7-7-7-7-|----------------|----------------|3-3-3-3---------|

|----------------|----------------|----------------|----------------|
|----------------|----------------|----------------|----------------|
|----------------|----------------|----------------|----------------|
|----------------|9-9-9-9-7-7-7-7-|9-9-9-9-7-7-7-7-|--------xxxxxxxx|
|5-5-5-5-7-7-7-7-|7-7-7-7-5-5-5-5-|7-7-7-7-5-5-5-5-|5-5-5-5-xxxxxxxx|
|3-3-3-3-5-5-5-5-|----------------|----------------|3-3-3-3-xxxxxxxx|

|----------------|----------------|----------------|----------------|
|----------------|----------------|----------------|----------7-7-7-|
|----------------|----------------|----------------|----------7-7-7-|
|----------------|9-9-9-9-7-7-7-7-|9-9-9-9-7-7-7-7-|----------7-7-7-|
|5-5-5-5-9-9-9-9-|7-7-7-7-5-5-5-5-|7-7-7-7-5-5-5-5-|5-5-5-5---5-5-5-|
|3-3-3-3-7-7-7-7-|----------------|----------------|3-3-3-3---------|

|----------------|----------------|----------------|----------------|
|----------------|----------------|----------------|----------------|
|----------------|----------------|----------------|----------------|
|----------------|9-9-9-9-7-7-7-7-|9-9-9-9-7-7-7-7-|----------------|
|5-5-5-5-7-7-7-7-|7-7-7-7-5-5-5-5-|7-7-7-7-5-5-5-5-|5-5-5-5-5\------|
|3-3-3-3-5-5-5-5-|----------------|----------------|3-3-3-3-3\------|

END.
Добавлено: 17.04.2012
Другие материалы по этой песне:
  • Аккорды и текст

Страница создана 17.04.2012
http://primanota.ru/say-anything/metal-now-chords.htm
Привет, Гость.
Предлагаем пройти революционный курс по гитаре.
Подарок от PrimaNota.Ru, забирай!