PrimaNota.ru - самый крупный в мире бесплатный архив песенных текстов, аккордов, табулатур и нот


Say Anything - Cemetery Acoustic Live - таба, видео

Регистрация Запомнить меня
Войти через:  Facebook Google Twitter Vk Yandex Mail.ru

Say Anything - Cemetery Acoustic Live - таба, видео

Печатать
Просмотров: 128
Уроки эстрадного вокала в Санкт-Петербурге
-------------------------------------------------------------------------------
                             Cemetery Acoustic - Say Anything
-------------------------------------------------------------------------------
Tabbed by:Firedogx
E-mail:parkerj725@hotmail.com

This tab is for the Live version of Cemetery with Max Bemis ft. Sherri @ Brighton Hall 2011.
Video here: https://www.youtube.com/watch?v=d4kkoyH5Cmk

This is my first tab. It's a little rough but it is as accurate as I could make it, PLEASE COMMENT BELOW
IF YOU NOTICE ANY ERRORS / FILLS THAT I HAVE MISSED.

LEGEND: 
x = Mute
Ø = Optional note (open)

Tuning:EADGBE STANDARD

Intro/Verse (All Downstrokes)
e|-x-Ø-Ø-x-Ø-Ø-Ø-x-Ø-Ø-Ø-x-Ø-Ø-Ø-x-Ø-Ø-Ø-x-Ø-Ø-Ø-x-Ø-Ø-Ø-x-Ø-Ø-Ø-x-----------|
B|-x-Ø-Ø-x-Ø-Ø-Ø-x-Ø-Ø-Ø-x-Ø-Ø-Ø-x-Ø-Ø-Ø-x-Ø-Ø-Ø-x-Ø-Ø-Ø-x-Ø-Ø-Ø-x-----------|
G|-x-x-x-x-x-x-x-x-x-x-x-x-x-x-x-x-x-x-x-x-x-x-x-x-x-x-x-x-x-x-x-x-----------|
D|-x-9-9-x-9-9-9-x-9-9-9-x-9-9-9-x-9-9-9-x-9-9-9-x-9-9-9-x-9-9-9-x-----------| (x1 For intro)
A|-x-7-7-x-7-7-7-x-7-7-7-x-7-7-7-x-7-7-7-x-7-7-7-x-7-7-7-x-7-7-7-x-----------| (x2 For Verse)
E|-x-0-0-x-9-9-9-x-4-4-4-x-5-5-5-x-0-0-0-x-9-9-9-x-4-4-4-x-5-5-5-x-----------|
                                  
e|-Ø-Ø-Ø-x-Ø-Ø-Ø-x-Ø-Ø-Ø-x-Ø-Ø-Ø-x-Ø-Ø-Ø-x-Ø-Ø-Ø-x-Ø-Ø-Ø-x-Ø-Ø---x---------|
B|-Ø-Ø-Ø-x-Ø-Ø-Ø-x-Ø-Ø-Ø-x-Ø-Ø-Ø-x-Ø-Ø-Ø-x-Ø-Ø-Ø-x-Ø-Ø-Ø-x-Ø-Ø---x---------|
G|-x-x-x-x-x-x-x-x-x-x-x-x-x-x-x-x-x-x-x-x-x-x-x-x-x-x-x-x-x-x---x---------|
D|-9-9-9-x-9-9-9-x-9-9-9-x-9-9-9-x-9-9-9-x-9-9-9-x-9-9-9-x-9-9---x---------| (x1 For intro)
A|-7-7-7-x-7-7-7-x-7-7-7-x-7-7-7-x-7-7-7-x-7-7-7-x-7-7-7-x-7-7---x---------| (x2 For Verse)
E|-0-0-0-x-9-9-9-x-4-4-4-x-5-5-5-x-0-0-0-x-9-9-9-x-4-4-4-x-5-5---x---------| (End the 1st repeat on ^ verse)
                                 ^ Jump to pre-chorus after 1st repeat
Pre-Chorus (Nothing seems, to turn out right. Somethings gotta turn out right.)
e|x-0-0-0-0-0-0-0-x-0-0-0-x-0-0-0-0-xx-0-0-0-0-0-0-0-x-0-0-0-x-0-0----------|
B|x-0-0-0-0-0-0-0-x-0-0-0-x-0-0-0-0-xx-0-0-0-0-0-0-0-x-0-0-0-x-0-0----------|
G|x-x-x-x-x-x-x-x-x-x-x-x-x-x-x-x-x-xx-9-9-9-9-9-9-9-x-9-9-9-x-9-9----------|
D|x-9-9-9-9-9-9-9-x-9-9-9-x-9-9-9-9-xx-9-9-9-9-9-9-9-x-9-9-9-x-9-9----------| x 1
A|x-7-7-7-7-7-7-7-x-7-7-7-x-7-7-7-7-xx-7-7-7-7-7-7-7-x-7-7-7-x-7-7----------|
E|x-0-0-0-9-9-9-9-x-4-4-4-x-5-5-5-5-xx-0-0-0-9-9-9-9-x-4-4-4-x-5-5----------|

Chorus (If you want then let me die..)
e|x-Ø~x-0-0-0-x-0-0-0-0-0-0-0-0-x-0-0-0-0-0-0-0-0-x-0-0-0-0-x-0-0-0-0-----------|
B|x-Ø~x-0-0-0-x-0-0-0-0-0-0-0-0-x-0-0-0-0-0-0-0-0-x-0-0-0-0-x-0-0-0-0-----------|
G|x-x~x-x-x-x-x-x-x-x-x-x-x-x-x-x-x-x-x-x-x-x-x-x-x-x-x-x-x-x-x-x-x-x-----------|
D|x-9~x-9-9-9-x-9-9-9-9-9-9-9-9-x-9-9-9-9-9-9-9-9-x-9-9-9-9-x-9-9-9-9-----------|
A|x-7~x-7-7-7-x-7-7-7-7-7-7-7-7-x-7-7-7-7-7-7-7-7-x-7-7-7-7-x-9-9-9-9-----------|
E|x-0~x-5-5-5-x-7-7-7-7-7-7-7-7-x-5-5-5-5-5-5-5-5-x-9-9-9-9-x-7-7-7-7-----------|

e|-0-0-0-0-0-0-0-0-x-0-0-0-0-0-0-0-0-x-0-0-0-0-0-0-0-0-x-0-0-0-0-x-0-0-0-0-------|
B|-0-0-0-0-0-0-0-0-x-0-0-0-0-0-0-0-0-x-0-0-0-0-0-0-0-0-x-0-0-0-0-x-0-0-0-0-------|
G|-x-x-x-x-x-x-x-x-x-x-x-x-x-x-x-x-x-x-x-x-x-x-x-x-x-x-x-x-x-x-x-x-x-x-x-x-------|
D|-9-9-9-9-9-9-9-9-x-9-9-9-9-9-9-9-9-x-9-9-9-9-9-9-9-9-x-9-9-9-9-x-9-9-9-9-------|
A|-7-7-7-7-7-7-7-7-x-7-7-7-7-7-7-7-7-x-7-7-7-7-7-7-7-7-x-7-7-7-7-x-9-9-9-9-------|
E|-5-5-5-5-5-5-5-5-x-9-9-9-9-9-9-9-9-x-5-5-5-5-5-5-5-5-x 9-9-9-9-x-7-7-7-7-------|

Verse 2 (There's no one who imagines like you...)
e|-x-Ø-Ø-x-Ø-Ø-Ø-x-Ø-Ø-Ø-x-Ø-Ø-Ø-x-Ø-Ø-Ø-x-Ø-Ø-Ø-x-Ø-Ø-Ø-x-Ø-Ø-Ø-x-----------|
B|-x-Ø-Ø-x-Ø-Ø-Ø-x-Ø-Ø-Ø-x-Ø-Ø-Ø-x-Ø-Ø-Ø-x-Ø-Ø-Ø-x-Ø-Ø-Ø-x-Ø-Ø-Ø-x-----------|
G|-x-x-x-x-x-x-x-x-x-x-x-x-x-x-x-x-x-x-x-x-x-x-x-x-x-x-x-x-x-x-x-x-----------|
D|-x-9-9-x-9-9-9-x-9-9-9-x-9-9-9-x-9-9-9-x-9-9-9-x-9-9-9-x-9-9-9-x-----------| 
A|-x-7-7-x-7-7-7-x-7-7-7-x-7-7-7-x-7-7-7-x-7-7-7-x-7-7-7-x-7-7-7-x-----------| 
E|-x-0-0-x-9-9-9-x-4-4-4-x-5-5-5-x-0-0-0-x-9-9-9-x-4-4-4-x-5-5-5-x-----------|
                                  
e|-Ø-Ø-Ø-x-Ø-Ø-Ø-x-Ø-Ø-Ø-x-Ø-Ø-Ø-x-----------------------------------------|
B|-Ø-Ø-Ø-x-Ø-Ø-Ø-x-Ø-Ø-Ø-x-Ø-Ø-Ø-x-----------------------------------------|
G|-x-x-x-x-x-x-x-x-x-x-x-x-x-x-x-x-----------------------------------------|
D|-9-9-9-x-9-9-9-x-9-9-9-x-9-9-9-x--Jump to Pre-Chorus---------------------| 
A|-7-7-7-x-7-7-7-x-7-7-7-x-7-7-7-x-----------------------------------------| 
E|-0-0-0-x-9-9-9-x-4-4-4-x-5-5-5-x-----------------------------------------| 

Pre-Chorus (Tell me do you still feel this...)
e|x-0-0-0-0-0-0-0-x-0-0-0-x-0-0-0-0-xx-0-0-0-0-0-0-0-x-0-0-0-x-0-0----------|
B|x-0-0-0-0-0-0-0-x-0-0-0-x-0-0-0-0-xx-0-0-0-0-0-0-0-x-0-0-0-x-0-0----------|
G|x-x-x-x-x-x-x-x-x-x-x-x-x-x-x-x-x-xx-9-9-9-9-9-9-9-x-9-9-9-x-9-9----------|
D|x-9-9-9-9-9-9-9-x-9-9-9-x-9-9-9-9-xx-9-9-9-9-9-9-9-x-9-9-9-x-9-9----------| x 1
A|x-7-7-7-7-7-7-7-x-7-7-7-x-7-7-7-7-xx-7-7-7-7-7-7-7-x-7-7-7-x-7-7----------|
E|x-0-0-0-9-9-9-9-x-4-4-4-x-5-5-5-5-xx-0-0-0-9-9-9-9-x-4-4-4-x-5-5----------|

Break (You're in my body..)
e|---------------------------------------------------------------------------|
B|---------------------------------------------------------------------------|
G|---------------------------------------------------------------------------|
D|-9-9-9-9-9-9-9-9-9-9-9-9-9-9-9-9-9-9-9-9-9-9-9-9-9-9-9-9-9-9-9-9-----------|x2
A|-7-7-7-7-7-7-7-7-7-7-7-7-7-7-7-7-7-7-7-7-7-7-7-7-9-9-9-9-9-9-9-9-----------|
E|-5-5-5-5-5-5-5-5-9-9-9-9-9-9-9-9-0-0-0-0-0-0-0-0-7-7-7-7-7-7-7-7-----------|
PM . . . . . . . . . . . . . . . . . . . . . . . . . . . . . . . .

2nd Chorus (We'll drown in lakes of fire)
e|x-Ø~x-0-0-0-x-0-0-0-0-0-0-0-0-x-0-0-0-0-0-0-0-0-x-0-0-0-0-x-0-0-0-0-----------|
B|x-Ø~x-0-0-0-x-0-0-0-0-0-0-0-0-x-0-0-0-0-0-0-0-0-x-0-0-0-0-x-0-0-0-0-----------|
G|x-x~x-x-x-x-x-x-x-x-x-x-x-x-x-x-x-x-x-x-x-x-x-x-x-x-x-x-x-x-x-x-x-x-----------|
D|x-9~x-9-9-9-x-9-9-9-9-9-9-9-9-x-9-9-9-9-9-9-9-9-x-9-9-9-9-x-9-9-9-9-----------|
A|x-7~x-7-7-7-x-7-7-7-7-7-7-7-7-x-7-7-7-7-7-7-7-7-x-7-7-7-7-x-9-9-9-9-----------|
E|x-0~x-5-5-5-x-9-9-9-9-9-9-9-9-x-5-5-5-5-5-5-5-5-x-9-9-9-9-x-7-7-7-7-----------|

e|-0-0-0-0-0-0-0-0-x-0-0-0-0-0-0-0-0-x-0-0-0-0-0-0-0-0-x-0-0-0-0-x-0-0-0-0-------|
B|-0-0-0-0-0-0-0-0-x-0-0-0-0-0-0-0-0-x-0-0-0-0-0-0-0-0-x-0-0-0-0-x-0-0-0-0-------|
G|-x-x-x-x-x-x-x-x-x-x-x-x-x-x-x-x-x-x-x-x-x-x-x-x-x-x-x-x-x-x-x-x-x-x-x-x-------|
D|-9-9-9-9-9-9-9-9-x-9-9-9-9-9-9-9-9-x-9-9-9-9-9-9-9-9-x-9-9-9-9-x-9-9-9-9-------|
A|-7-7-7-7-7-7-7-7-x-7-7-7-7-7-7-7-7-x-7-7-7-7-7-7-7-7-x-7-7-7-7-x-9-9-9-9-------|
E|-5-5-5-5-5-5-5-5-x-9-9-9-9-9-9-9-9-x-5-5-5-5-5-5-5-5-x 9-9-9-9-x-7-7-7-7-------|

Break 2 (You're in my body..)
e|---------------------------------------------------------------------------|
B|---------------------------------------------------------------------------|
G|---------------------------------------------------------------------------|
D|-9~--x---------------------------------------------------------------------|x1
A|-7~--x---------------------------------------------------------------------|
E|-5~--x---------------------------------------------------------------------|
Sing throughout this part without playing

Break 2 (You're in my body..)
e|-0-----------------------------------------------0-0-0-0-0-0-0-0-----------|
B|-0-----------------------------------------------0-0-0-0-0-0-0-0-----------|
G|-x-----------------------------------------------x-x-x-x-x-x-x-x-----------|
D|-9-9-9-9-9-9-9-9-9-9-9-9-9-9-9-9-9-9-9-9-9-9-9-9-9-9-9-9-9-9-9-9-----------|x1
A|-7-7-7-7-7-7-7-7-7-7-7-7-7-7-7-7-7-7-7-7-7-7-7-7-9-9-9-9-9-9-9-9-----------|
E|-5-5-5-5-5-5-5-5-9-9-9-9-9-9-9-9-0-0-0-0-0-0-0-0-7-7-7-7-7-7-7-7-----------|
PM . . . . . . . . . . . . . . . . . . . . . . . . 
2nd time around begin playing again

Chorus 3 (Falling asleep. Asleep at the wheel..)
e|-------------------------------------------------------------------------|
B|-------------------------------------------------------------------------|
G|-------------------------------------------------------------------------|
D|-9----9----9----9--------------------------------------------------------|x2
A|-7----9----7----9--------------------------------------------------------|
E|-5x16-7x16-5x16-7x16-----------------------------------------------------|

Chorus 3 (Life would be enough...)
e|-------------------------------------------------------------------------|
B|-------------------------------------------------------------------------|
G|-------------------------------------------------------------------------|
D|-9----9----9----9---9----------------------------------------------------|x2
A|-7----7----7----7---9----------------------------------------------------|
E|-5x8--9x8--5x8--9x4-7x4--------------------------------------------------|

Chorus 3 (And I'll face the one who made... My disgusting heart from a lump of clay)
e|-------------------------------------------------------------------------|
B|-------------------------------------------------------------------------|
G|-------------------------------------------------------------------------|
D|-9----9----9----9---9----------------------------------------------------|x2
A|-7----7----7----7---9----------------------------------------------------|
E|-5x8--9x8--5x8--9x4-7x4--------------------------------------------------|
   Up and down strokes, lightly

Outro YOU'RE IN MY BODY
e|-0-0-0-0-0-0-0-0-0-0-0-0-0-0-0-0-0-0-0-0-0-0-0-0-0-0-0-0-0-0-0-0-----------|
B|-0-0-0-0-0-0-0-0-0-0-0-0-0-0-0-0-0-0-0-0-0-0-0-0-0-0-0-0-0-0-0-0-----------|
G|-x-x-x-x-x-x-x-x-x-x-x-x-x-x-x-x-x-x-x-x-x-x-x-x-x-x-x-x-x-x-x-x-----------|
D|-9-9-9-9-9-9-9-9-9-9-9-9-9-9-9-9-9-9-9-9-9-9-9-9-9-9-9-9-9-9-9-9-----------|x3
A|-7-7-7-7-7-7-7-7-7-7-7-7-7-7-7-7-7-7-7-7-7-7-7-7-9-9-9-9-9-9-9-9-----------|
E|-5-5-5-5-5-5-5-5-9-9-9-9-9-9-9-9-0-0-0-0-0-0-0-0-7-7-7-7-7-7-7-7-----------|

************************************

| /   slide up
| \   slide down
| h   hammer-on
| p   pull-off
| ~   vibrato
| +   harmonic
| x   Mute note
| b   Bend
| pb  Pre-bend
| br  Bend release
| pbr Pre-bend release
| brb Bend release bend

************************************
Добавлено: 23.10.2015
Другие материалы по этой песне:
  • Аккорды и текст

Страница создана 23.10.2015
http://primanota.ru/say-anything/cemetery-acoustic-live-chords.htm
Привет, Гость.
Предлагаем пройти революционный курс по гитаре.
Подарок от PrimaNota.Ru, забирай!