PrimaNota.ru - самый крупный в мире бесплатный архив песенных текстов, аккордов, табулатур и нот


Say Anything - Baby Girl Im A Blur - текст песни, таба, видео

Регистрация Запомнить меня
Войти через:  Facebook Google Twitter Vk Yandex Mail.ru

Say Anything - Baby Girl Im A Blur - текст песни, таба, видео

Печатать
Просмотров: 208
TAB BY: let.it.beatle@gmail.com
THERE IS NOT A SINGLE CORRECT TAB FOR THIS SONG!!!
that is why i'm putting more of the song and the correct version of it too!
standard tuning...
==Intro/Verse==
|-Bb-Db--Ab-Ab-|
|--------------|
|--------------|
|-8--11--6--6--|
|-8--11--6--6--|
|-6--9---4--4--|

==Chorus==
|-Eb-Gb--Db--Db--|
|----------------|
|-8--11----------|
|-8--11--11--11--|
|-6--9---11--11--|
|--------9---9---|
This plays during the "So take all I got from me, Hey Yeah..." part and during the
with me all the time..." part, so basically until next verse
==Play Verse==
==Play Chorus==
==Interlude==
|-Bb--------------Db-----------------Ab--------Ab-----------|
|-----------------------------------------------------------|
|-----------------------------------------------------------|
|-----------------------------------------------------------|
|---8---9-8---8-----11---10-9----9-----6---8---8---6-9-8----|
|-6---6-----9-----9----9------10-----4---4---4---4-------9--|
This is in the same speed and has twice the chord length as the Verses...
This is played through the "We fall right down, get back up again.."
When he plays the "We're on a sinking ship..." part he plays the Interlude above but he 
this in sometimes:
|-------|
|-------|
|-10/11-|
|-x-x---|
|-8/9---|
|-------|
You'll have to listen to the song to know when...

...sorry i couldn't tab the solo...
Добавлено: 19.07.2012
Другие материалы по этой песне:

Страница создана 25.05.2012
http://primanota.ru/say-anything/baby-girl-im-a-blur-chords.htm
Привет, Гость.
Предлагаем пройти революционный курс по гитаре.
Подарок от PrimaNota.Ru, забирай!