PrimaNota.ru - самый крупный в мире бесплатный архив песенных текстов, аккордов, табулатур и нот


Saxon - Strong Arm Of The Law - аккорды и текст, таба, видео

Регистрация Запомнить меня
Войти через:  Facebook Google Twitter Vk Yandex Mail.ru

Saxon - Strong Arm Of The Law - аккорды и текст, таба, видео

Печатать
Просмотров: 196
Авторы: Biff Byford, Graham Oliver, Paul Quinn, Steve Dawson, Pete Gill

Strong Arm Of The Law
Saxon
		   SAXON
Strong arm of the law
Written by Byford,Oliver,Quinn,Dawson,Gill
Transcribed by The Coach


Here's one of Saxon's best songs from 1980's “Strong arm” album. Like most Saxon-songs it's quite simple structured. I was too lazy to tab Paul's Solo, so listen to the song or play your own stuff on the chords of the mainriff and the chorusriff.



Guitar 1 (Graham)
e|----------------------------------------------------------|
B|----------------------------------------------------------|
G|----------------------------------------------------------|
D|--7~ ~ ~ ~ ~ ~ ~ ~ ~ ~ ~ ~ ~ ~ ~ ~ ~ ~ ~ ~ ~ ~ ~ ~ ~ ~ ~ ~|
A|----------------------------------------------------------|
E|----------------------------------------------------------|


Guitar 2 (Paul) played during whole verse
e|----------------------------------------------------------|
B|----------------------------------------------------------|
G|---------5-------7---2----------------5------7---2--------|
D|---------5-------7---2----------------5------7---2--------|
A|-----5^7-----7^9-----0------------5^7----7^9-----0--------|
E|----------------------------------------------------------|


Guitar 1 (Graham)
e|-----------------------------------------------------------|
B|-----------------------------------------------------------|
G|---------5-------7-------5-4-2-------5------7--------5-4-2-|
D|---------5-------7-------5-4-2-------5------7--------5-4-2-|
A|-----5^7-----7^9-----0-0-----0---5^9----7^9------0-0-----0-|
E|-----------------------------------------------------------|


Chorus
e|------------------------------------------------------------------------|
B|------------------------------------------------------------------------|
G|--2-----------7---5---2-----2-----------7---5-------5-------7------5-4-2|
D|--2----5-5----7---5---2-----2----5-5----7---5-------5-------7------5-4-2|
A|--0----5-5----5---3---0-----0----5-5----5---3---5^7-----7^9----0-0-----0|
E|-------3-3-----------------------3-3------------------------------------|     
Добавлено: 14.10.2013
Другие материалы по этой песне:

Страница создана 27.03.2012
http://primanota.ru/saxon/strong-arm-of-the-law-chords.htm
Привет, Гость.
Предлагаем пройти революционный курс по гитаре.
Подарок от PrimaNota.Ru, забирай!