PrimaNota.ru - самый крупный в мире бесплатный архив песенных текстов, аккордов, табулатур и нот


Saxon - Gonna Shout - текст песни, бас-таба, видео

Регистрация Запомнить меня
Войти через:  Facebook Google Twitter Vk Yandex Mail.ru

Saxon - Gonna Shout - текст песни, бас-таба, видео

Печатать
Просмотров: 126
Уроки эстрадного вокала в Санкт-Петербурге
Saxon - Gonna Shout
wutteneumann

standard tuning
Intro: (00:15)
|-----------------------------------|
|-----------------------------------|
|--5--5--5--5--3--3--3--3-----------|
|-----------------------------------|
Verse & Chorus : (00:29) We gonna shout !!! Let it rock !!!
|-----------------|-----------------|
|-----------------|-----------------|
|-----------------|-5-5-5-5-5-5-5-5-|
|-5-5-5-5-5-5-5-5-|-----------------|
Variation 1:       Variation 2:
|-----------------|-----5-7/9-7-5-----|
|-----5h7b5-------|---7-----------7---|
|---7-------7-5---|-5---------------5-|
|-5-------------5-|-------------------|
Bridge: (02:13)
|----------------------------------------------|
|----------------------------------------------|
|-7~~~-5~~~-3~~~-5~~~-3~~~-5~~~~-3~~~-33333333-|
|----------------------------------------------|
Solo Part: (02:30)
Same as verse !
Bridge 2: (03:14)
|---------------------------------|
|---------------------------------|
|-5-5-5-5-5-5-5-5-3-3-3-3-3-3-3-3-|
|---------------------------------|
then verse: (03:28)
the end: (03:56)
|----------|
|----------|
| ----5----|
|-5h7------|
tabbed by wutteneumann
have fun !!! ( and please -please- rate it !!! )
Добавлено: 06.07.2013
Другие материалы по этой песне:
  • Аккорды и текст

Страница создана 21.07.2012
http://primanota.ru/saxon/gonna-shout-chords.htm
Привет, Гость.
Предлагаем пройти революционный курс по гитаре.
Подарок от PrimaNota.Ru, забирай!