PrimaNota.ru - самый крупный в мире бесплатный архив песенных текстов, аккордов, табулатур и нот


Saxon - Everybody Up - текст песни, бас-таба, видео

Регистрация Запомнить меня
Войти через:  Facebook Google Twitter Vk Yandex Mail.ru

Saxon - Everybody Up - текст песни, бас-таба, видео

Печатать
Просмотров: 186
Уроки эстрадного вокала в Санкт-Петербурге
Saxon - Everybody up

Intro
|---------------------------------------------------------------------|
|---------------------------------------------------------------------|
|------------------------3----------33-------------------3------------|
|---------------------------------------------------------------------|   X1

Riff 1
|---------------------------------------------------------------------|
|---------------------------------------------------------------------|
|------------3--00--3 00--3 00---3 00------3-5------------------------|
|---------------------------------------------------------------------| X6

Riff 2
|---------------------------------------------------------------------|
|---------------------------------------------------------------------|
|----------0000000000000000--------3-0-0-5----------------------------|
|---------------------------------------------------------------------| X4
on your feet

Chorus
|---------------------------------------------------------------------|
|---------------------------------------------------------------------|
|------3--------------------5-----------------------------------------|
|---------------------------------------------------------------------|
I said everybody up, everybody, everybody up
|---------------------------------------------------------------------|
|---------------------------------------------------------------------|
|------------3--00-3-00--3 00---3-00------35--------------------------|
|---------------------------------------------------------------------| 

|---------------------------------------------------------------------|
|---------------------------------------------------------------------|
|------------3--00-3-00--3 00---3-00------35--------------------------|
|---------------------------------------------------------------------| X2

Backing Solo
|---------------------------------------------------------------------|
|---------------------------------------------------------------------|
|-----30-------000000000000000----5-3-0--------3-0-0-5----------------|
|---------------------------------------------------------------------| X6

Order
Intro 
Riff 1 
Riff 2
Chorus
Riff 2
Chorus
Backing Solo
Riff 1
Riff 2
Chorus
Riff 1 


Song written by Saxon.
Добавлено: 28.08.2013
Другие материалы по этой песне:
  • Аккорды и текст

Страница создана 09.06.2012
http://primanota.ru/saxon/everybody-up-chords.htm
Привет, Гость.
Предлагаем пройти революционный курс по гитаре.
Подарок от PrimaNota.Ru, забирай!