PrimaNota.ru - самый крупный в мире бесплатный архив песенных текстов, аккордов, табулатур и нот


Saxon - Beyond The Grave - текст песни, таба, видео

Регистрация Запомнить меня
Войти через:  Facebook Google Twitter Vk Yandex Mail.ru

Saxon - Beyond The Grave - текст песни, таба, видео

Печатать
Просмотров: 193
Clean Intro(Gtr1) let ring, obviously
d#|---------0------------0----------------0-------|
A#|-------0---0------------0------------0----0----|
F#|o----9--------------------9--------8-----------|
C#|o--9---------9------9-------9----9----------9--|
G#|-7----------------7------------6---------------|
D#|-----------------------------------------------|

d#|---------0------------0----------------0-------|
A#|-------0---0------------0------------0----0----|
F#|-----5-------5------------5--------4--------4-o|
C#|---5----------------5-------5----4------------o|
G#|-3----------------3------------2---------------|
D#|-----------------------------------------------|

Gtr II could be a slide gtr or something, distorted anyway
d#|-fades in during-|------------------------------------------------------|
A#|-first repeat of-|-during second repeat---------------------------------|
F#|--------above----|------------------------------------------------------|
C#|-14<------------\|------------------------------------------------------|
G#|-----------------|------------------------------------------------------|
D#|-----------------|-/12v-------\11v----------\8v----------/14v-----------|

main riff, with gtr II slide thingy in background
d#|--------------------------------|-----------------------------------|
A#|--------------------------------|-----------------------------------|
F#|--------------------------------|----------------------------------o|
C#|-2----4-3-----------------------|-2----4-5-------------------7-----o|
G#|-2----2-1-2---2---2---2---2-4-5-|-2----2-3-2---2---2---2---2-5------|
D#|-0--------0---0---0---0---0-2-3-|-0--------0---0---0---0---0--------|

Verse
pm the lower 2 strings played
d#|-----------------|-----------------|-----------------|------------------|
A#|-----------------|-----------------|-----------------|------------------|
F#|o----9-----9---9-|-----8-----8---8-|-----5-----5---5-|-----4-----4---4-o|
C#|o--9-----9-------|---9-----9-------|---5-----5-------|---4-----4-------o|
G#|-7-----7-----7---|-6-----6-----6---|-3-----3-----3---|-2-----2-----2----|
D#|-----------------|-----------------|-----------------|------------------|

Verse rhythm after 2nd repeat of above(with above) all pm
d#|-----------------|-----------------|-----------------|------------------|
A#|-----------------|-----------------|-----------------|------------------|
F#|o----------------|-----------------|-----------------|-----------------o|
C#|o9-9-9-9-9-9-9-9-|-9-9-9-9-9-9-9-9-|-5-5-5-5-5-5-5-5-|-4-4-4-4-4-4-4-4-o|
G#|-7-7-7-7-7-7-7-7-|-6-6-6-6-6-6-6-6-|-3-3-3-3-3-3-3-3-|-2-2-2-2-2-2-2-2--|
D#|-----------------|-----------------|-----------------|------------------|

Chorus
d#|--------------------------------------|------------------------------------------|
A#|--------------------------------------|------------------------------------------|
F#|------4-------5----------7-------5----|------4-------5----------7----------------|
C#|----4-4--4----5--------7-7--7----5----|----4-4--4----5--------7-7--7-------------|
G#|-2---------3-----3--5---------3-----3-|-2---------3-----3--5---------3--2-0------|
D#|--------------------------------------|--------------------------------------3-2-|

thats all the riffs, the clean intro is played during the solo, thats it.
Добавлено: 26.04.2012
Другие материалы по этой песне:
  • Аккорды и текст

Страница создана 26.04.2012
http://primanota.ru/saxon/beyond-the-grave-chords.htm
Привет, Гость.
Предлагаем пройти революционный курс по гитаре.
Подарок от PrimaNota.Ru, забирай!