PrimaNota.ru - самый крупный в мире бесплатный архив песенных текстов, аккордов, табулатур и нот


Sawyer Fredericks - Have You Ever Seen The Rain - таба, видео

Регистрация Запомнить меня
Войти через:  Facebook Google Twitter Vk Yandex Mail.ru

Sawyer Fredericks - Have You Ever Seen The Rain - таба, видео

Печатать
Просмотров: 112
Авторы музыки: John Fogerty
Авторы текста: John Fogerty
-------------------------------------------------------------------------------
        HAVE YOU EVER SEEN THE RAIN - Sawyer Fredericks and Noelle Bybee (Cover)
-------------------------------------------------------------------------------
Another Sawyer tab - this one remains very true to the original though moves it onto Capo 3.
Hence, put a capo on three. 
Vocal parts are Noelle's and Sawyers - you can work out who sings what.

Tuning: EADGBe

Introduction
    C
e|------------------------------------------|
B|---1-------1-------1-------1--------------|
G|-------0-------0-------0-------0----------|
D|------------------------------------------|
A|-3---3---3---3---3---3---3---0------------|
E|------------------------------------------|

Verse
 Someone told me long ago,          there's a calm before the storm, I know
   C
e|----------------------------------------------------------------------|
B|---1-------1-------1-------1-------1-------1-------1-------1----------|
G|-------0-------0-------0-------0-------0-------0-------0-------0------|
D|----------------------------------------------------------------------|
A|-3---3---3---3---3---3---3---0---3---3---3---3---3---3---3---0--------|
E|----------------------------------------------------------------------|

                  it's been coming for some time
   G                                C
e|-------------------------------------------------------------------|
B|-------------------------------1---1---1---1---1---1---1-----------|
G|---0---0---0---0---0---0---0-------------------------------0-------|
D|-------------------------------------------------------------------|
A|-------------------------0---3---3---3---3---3---3---3---0---------|
E|-3---3---3---3---3---3---------------------------------------------|

     When it's over, so they say,      it'll rain a sunny day I know
   C
e|----------------------------------------------------------------------|
B|---1---1---1---1---1---1---1-------1---1---1---1---1---1---1----------|
G|-------------------------------0-------------------------------0------|
D|----------------------------------------------------------------------|
A|-3---3---3---3---3---3---3---0---3---3---3---3---3---3---3---0--------|
E|----------------------------------------------------------------------|

                 shining down like water
   G                                C
e|-------------------------------------------------------------------|
B|-------------------------------1---1---1---1---1---1---1---1-------|
G|---0---0---0---0---0---0---0---------------------------------------|
D|---------------------------------------------------------0---------|
A|-------------------------0---3---3---3---3---3---3---3-------------|
E|-3---3---3---3---3---3---------------------------------------------|

Chorus
       And I wanna know,      have you ever seen the rain?
   F                G               C     C/B      Am
e|-------------------------3-------------------------------0-----------|
B|---1---1---1---1---3---3---3---3---1---1---1---1---1---1---1---0-----|
G|---------------------0-------0---------------------------------------|
D|-3---3---3---3---0-----------------------------------2-------0-------|
A|---------------------------------3---3---2---2---0-------------------|
E|---------------------------------------------------------------------|

         And I wanna know,      have you ever seen the rain?
   F                G               C     C/B      Am
e|---------------------------------------------------------0-----------|
B|---1---1---1---1---3---3---3---3---1---1---1---1---1---1---1---0-----|
G|---------------------------------------------------------------------|
D|-3---3---3---3-----------0---------------------------2-------0-------|
A|-----------------2---2-------2---3---3---2---2---0-------------------|
E|---------------------------------------------------------------------|

          Comin' down on a sunny day
   C                G              C
e|-----------------------------------------0-------------0--------------|
B|---1---1---1---1---3---3---3---3---1---1---1------1------1------------|
G|------------------------------------------------0---------------------|
D|-----------------0---0---0---0---2---2--------------------------------|
A|-3---3---3---3--------------------------------------------------------|
E|----------------------------------------------------------------------|

Verse

 Yesterday and days before, (before) sun is cold and rain is hard, I know
   C                           Am7 C                          Am7
e|-0---0---0---0---0---0---0---0---0---0---0---0---0---0---0---0------|
B|-1---1---1---1---1---1---1---1---1---1---1---1---1---1---1---1------|
G|-0---0---0---0---0---0---0---0---0---0---0---0---0---0---0---0------|
D|-2---2---2---2---2---2---2---2---2---2---2---2---2---2---2---2------|
A|-3---3---3---3---3---3---3---0---3---3---3---3---3---3---3---0------|
E|--------------------------------------------------------------------|

                  been that way for all my time
   G                           Am7    C                        Am7
e|-3---3---3---3---3---3---3---0---0---0---0---0---0---0---0---0---------|
B|-3---3---3---3---3---3---3---1---1---1---1---1---1---1---1---1---------|
G|-0---0---0---0---0---0---0---0---0---0---0---0---0---0---0---0---------|
D|-0---0---0---0---0---0---0---2---2---2---2---2---2---2---2---2---------|
A|-2---2---2---2---2---2---2---0---3---3---3---3---3---3---3---0---------|
E|-3---3---3---3---3---3---3---------------------------------------------|

 'Til forever on it goes, (it goes) through the circle fast and slow, I know
   C                           Am7 C                          Am7
e|-0---0---0---0---0---0---0---0---0---0---0---0---0---0---0---0------|
B|-1---1---1---1---1---1---1---1---1---1---1---1---1---1---1---1------|
G|-0---0---0---0---0---0---0---0---0---0---0---0---0---0---0---0------|
D|-2---2---2---2---2---2---2---2---2---2---2---2---2---2---2---2------|
A|-3---3---3---3---3---3---3---0---3---3---3---3---3---3---3---0------|
E|--------------------------------------------------------------------|

                And it can't stop I wonder
   G                           Am7    C                        Am7
e|-3---3---3---3---3---3---3---0---0---0---0---0---0---0---0---0---------|
B|-3---3---3---3---3---3---3---1---1---1---1---1---1---1---1---1---------|
G|-0---0---0---0---0---0---0---0---0---0---0---0---0---0---0---0---------|
D|-0---0---0---0---0---0---0---2---2---2---2---2---2---2---2---2---------|
A|-2---2---2---2---2---2---2---0---3---3---3---3---3---3---3---0---------|
E|-3---3---3---3---3---3---3---------------------------------------------|

Chorus

       And I wanna know,      have you ever seen the rain?
   F                G               C     C/B      Am          Am7
e|-1---1---1---1---3---3---3---3---0---0---0---0---0---0---0---0-------|
B|-1---1---1---1---3---3---3---3---1---1---1---1---1---1---1---1-------|
G|-2---2---2---2---0---0---0---0---0---0---0---0---2---2---2---0-------|
D|-3---3---3---3---0---0---0---0---2---2---2---2---2---2---2---2-------|
A|-3---3---3---3---2---2---2---2---3---3---2---2---0---0---0---0-------|
E|-1---1---1---1---3---3---3---3---------------------------------------|

       And I wanna know,      have you ever seen the rain?
   F                G               C     C/B      Am          Am7
e|-1---1---1---1---3---3---3---3---0---0---0---0---0---0---0---0-------|
B|-1---1---1---1---3---3---3---3---1---1---1---1---1---1---1---1-------|
G|-2---2---2---2---0---0---0---0---0---0---0---0---2---2---2---0-------|
D|-3---3---3---3---0---0---0---0---2---2---2---2---2---2---2---2-------|
A|-3---3---3---3---2---2---2---2---3---3---2---2---0---0---0---0-------|
E|-1---1---1---1---3---3---3---3---------------------------------------|

          Comin' down on a sunny day
   F                G               C     C/B      Am          Am7
e|-1---1---1---1---3---3---3---3---0---0---0---0---0-----------0-------|
B|-1---1---1---1---3---3---3---3---1---1---1---1---1-----------1-------|
G|-2---2---2---2---0---0---0---0---0---0---0---0---2-----------0-------|
D|-3---3---3---3---0---0---0---0---2---2---2---2---2-----------2-------|
A|-3---3---3---3---2---2---2---2---3---3---2---2---0-----------0-------|
E|-1---1---1---1---3---3---3---3---------------------------------------|

        (slow down everything here)
          Comin' down on a sunny    day
   F               G                 C
e|-1---1---1---1---3--------------------------------------------------0----|
B|-1---1---1---1---3------------------1---1---1---1---1---1---1---1---1----|
G|-2---2---2---2---0--------------------------------------------------0----|
D|-3---3---3---3---0--------------------------------------------------2----|
A|-3---3---3---3---2----------------3---3---3---3---3---3---3---0-----3----|
E|-1---1---1---1---3-------------------------------------------------------|


Sounds right! :)
Добавлено: 26.10.2015
Вам также может быть интересно:
Другие материалы по этой песне:
  • Аккорды и текст

Страница создана 26.10.2015
http://primanota.ru/sawyer-fredericks/have-you-ever-seen-rain-chords.htm
Привет, Гость.
Предлагаем пройти революционный курс по гитаре.
Подарок от PrimaNota.Ru, забирай!