PrimaNota.ru - самый крупный в мире бесплатный архив песенных текстов, аккордов, табулатур и нот


Sawyer Brown - Some Girls Do - аккорды и текст, таба, видео

Регистрация Запомнить меня
Войти через:  Facebook Google Twitter Vk Yandex Mail.ru

Sawyer Brown - Some Girls Do - аккорды и текст, таба, видео

Печатать
Просмотров: 172
Some Girls Do
Sawyer Brown


I've been trying to learn the song Some Girls Do by Sawyer Brown
and I'm having a little trouble picking up the main riff by ear.
Maybe I'm having a bad week.

Anyway, heres what I've figured out so far.  If anyone has some
input, please post or send me email.

Thanks in advance,

Joseph A. McGlynn
ATamp;T Bell Laboratories

VVVVVVVVVVVVVVVVVVVVVVVVVVVVVVVVVVVVVVVVVVVVVVVVVVVVVVVVVVVVVVVVVVVVVVVVVVV

Sawyer Brown's  Some Girls Do

General Riff:


|-----------------------|----------0--3---|
|-----3--3-----3--3-----|----3--3--1--0---|
|-----2--2--0--2--2-----|-0--2--2--0--0---|
|-----0--0-----0--0-----|----0--0--2--0---|
|--3--------------------|----------3--2---|
|-----------------------|----------3--3---|

|-----------------------|----------------------|
|-----3--3-----3--3-----|----3--3--------------|
|-----2--2--0--2--2-----|-0--2--4---2--2--0--2-|
|-----0--0-----0--0-----|----0--0---4--2--0--4-|
|--3--------------------|----------------------|
|-----------------------|----------------------|

NOTE:  This is from one-days memory, so I may have made mistakes




[A]                           [G]                  [D]
She turned up her nose as she ...
         [A]                    [G]                [D]
From the corner of my eye I ...
         [A]
You were sittin on the swing ...
[G]
Paintin your nails ...
[A]                     [G]                     [D]
And you yelled She was ...


CHORUS:

     [G]
Well I ain't ...
    [A]
But I ain't ...
    [G]               [A]
I'm wild and a ...
[G]                   [A]
Some girls don't ...
[G]  [A]              [D]
    Awe, some ...


  [A]                 [G]                  [D]
I yelled and asked if you ...
       [A]                       [G]          [D]
When we pulled out of your ...
        [A]                   
You was laughing at me, I ...
            [G]
You was the prettiest girl ...
         [A]                  [G]                     [D]
When you rolled your eyes ...


     [A]
Well good ole boys don't ...
    [G]
And rich boys think they ...
     [A]                 [G]                [D]
But there's some one ...


Добавлено: 06.09.2013
Другие материалы по этой песне:
  • Аккорды и текст

Страница создана 11.03.2012
http://primanota.ru/sawyer-brown/some-girls-do-chords.htm
Привет, Гость.
Предлагаем пройти революционный курс по гитаре.
Подарок от PrimaNota.Ru, забирай!