PrimaNota.ru - самый крупный в мире бесплатный архив песенных текстов, аккордов, табулатур и нот


Saw Doctors - 25 - таба, видео

Регистрация Запомнить меня
Войти через:  Facebook Google Twitter Vk Yandex Mail.ru

Saw Doctors - 25 - таба, видео

Печатать
Просмотров: 133
Уроки эстрадного вокала в Санкт-Петербурге
Saw Doctors
 
£25
From the album 'If This Is Rock And Roll I Want My Old Job Back'
 
Intro riff
 
  D5 (mandolin)
e----------------------------------------------------------
B----------------------------------------------------------
G----------------------------------------------------------
D-----0-3-0----/7-9-7-10-10-7-9-7-7--7-9-7-9h10-10-7-9-7-7-
A-0-3-------0----------------------------------------------
E----------------------------------------------------------
 
e----------------------------------------------------
B----------------------------------------------------
G-s11-11-11-10-9------------s11-11-11-10-9-----------
D-----------------7-9-7-9-7-----------------7-9-7-9-7
A----------------------------------------------------
E----------------------------------------------------
 
Verse
 
at the end of each line play E5  D5, one strum a piece

Chorus
 
As intro

Solo
 
As intro, then slides to:
 
  B5
e------------------------------------------------------------
B------------------------------------------------------------
G------------------------------------------------------------
D-/12-14-12-15-15-12-14-12-12--12-14-12-14h15-15-12-14-12-12-
A------------------------------------------------------------
E------------------------------------------------------------
 
... then back to the intro...

Harmonics after solo
e--(7)
B--(7)
G--(7)
 
End on D5
 
This file is the author's own work.
 
Tabbed by Jake Smart

     
Добавлено: 07.06.2013
Другие материалы по этой песне:
  • Аккорды и текст

Страница создана 07.06.2013
http://primanota.ru/saw-doctors/25-chords.htm
Привет, Гость.
Предлагаем пройти революционный курс по гитаре.
Подарок от PrimaNota.Ru, забирай!