PrimaNota.ru - самый крупный в мире бесплатный архив песенных текстов, аккордов, табулатур и нот


Savy Fav - Weve Got Boxes - бас-таба, видео

Регистрация Запомнить меня
Войти через:  Facebook Google Twitter Vk Yandex Mail.ru

Savy Fav - Weve Got Boxes - бас-таба, видео

Печатать
Просмотров: 59
Les Savy Fav - "We've Got Boxes"
from the album The Cat and the Cobra, released 1999
BASS tabbed by: Elaine "Len" Will
semi-permanent email: dishonest_don@hotmail.com

I know, you got all excited that there were finally some
LSF tabs up here and they turn out to be bass tabs. What's
up with that, huh. seriously, I once tried to figure out 
ROME (the song) on guitar, but it's in some bizarre tuning. 
I figure both of the songs I'm sending are actually supposed 
to be de-tuned, but I never bother with that. Here y'are...

verse and chorus: 
G|-------------------------------------|
D|-------------------------0--0-0-0-0--|
A|-----------2--2-2-2-3-3--------------|
E|--0-0--2/3---------------------------| 

"bridge": ("the landing party missed...")
G|------------------------------2-2--|
D|------------------2-2-2-2-3-3------|
A|--4-4-4-4-5-5-5-5------------------|
E|-----------------------------------| 


ending: ("we've been sleeping...")
G|------------------------------------|
D|------------------------------------|
A|--------------------3/5--5-5-5-5-5--|
E|--5--5-5-5-3--3-3-3-----------------|  

================================================================
     
Добавлено: 08.10.2013
Вам также может быть интересно:
Другие материалы по этой песне:
  • Аккорды и текст

Страница создана 08.10.2013
http://primanota.ru/savy-fav/weve-got-boxes-chords.htm
Привет, Гость.
Предлагаем пройти революционный курс по гитаре.
Подарок от PrimaNota.Ru, забирай!