PrimaNota.ru - самый крупный в мире бесплатный архив песенных текстов, аккордов, табулатур и нот


Savy Fav - Wake Up - бас-таба, видео

Регистрация Запомнить меня
Войти через:  Facebook Google Twitter Vk Yandex Mail.ru

Savy Fav - Wake Up - бас-таба, видео

Печатать
Просмотров: 86
Les Savy Fav - "Wake Up!"
from the album The Cat and the Cobra, released 1999
BASS tabbed by: Elaine "Len" Will
semi-permanent email: dishonest_don@hotmail.com

I really enjoy songs that have something DIFFERENT in the
bass instead of just what the guitar's playing, on one string.
This is a great example. again, these sound de-tuned, so 
go ahead and do that if you want...

verse: 
G|--------------------------------|
D|--------------------------------|
A|--0-0-0-2/3-3-3-3-------0-0-0---|
E|------------------2-2-2---------| 

chorus: (repeat w/o open E)
G|------------------|
D|----2-------------|
A|-------3-3/2-2----|
E|--0------------3--| 

bridge:
G|------------------------------------|
D|------------------------------------|
A|--0-0-0-0---------3-3-3-3-2-2-2-2---|
E|----------3-3-3-3-------------------|  

please email corrections to dishonest_don@hotmail.com

================================================================
     
Добавлено: 13.10.2013
Вам также может быть интересно:
Другие материалы по этой песне:
  • Аккорды и текст

Страница создана 24.09.2013
http://primanota.ru/savy-fav/wake-up-chords.htm
Привет, Гость.
Предлагаем пройти революционный курс по гитаре.
Подарок от PrimaNota.Ru, забирай!