PrimaNota.ru - самый крупный в мире бесплатный архив песенных текстов, аккордов, табулатур и нот


Saviour Machine - The Hunger Circle - текст песни, таба, видео

Регистрация Запомнить меня
Войти через:  Facebook Google Twitter Vk Yandex Mail.ru

Saviour Machine - The Hunger Circle - текст песни, таба, видео

Печатать
Просмотров: 84
		   "The Hunger Circle"
by: Saviour Machine
album: Saviour Machine II
written by: Saviour Machine
from: kpaju@sci.fi (Kalle Paju)
(C) 1994 By the author and the composers (GEMA)


It's no fun at all to play this song alone. Without
any backing tracks the guitar sounds quite poor.
Here's the transcription anyway.


 A
|------------------------------------------------|
|------------------------------------------------|
|14----------------------------------------------|
|------------------------------------------------|
|------------------------------------------------|
|------------------------------------------------|
 ,  .  .  .  ,  .  .  .  ,  .  .  .  ,  .  .  .

|------------------------------------------------|
|------------------------------------------------|
|(14)--------------------------------------------|
|------------------------------------14----15----|
|------------------------------------------------|
|------------------------------------------------|
 ,  .  .  .  ,  .  .  .  ,  .  .  .  ,  .  .  .

|------------------------------------------------|
|------------------------------------------------|
|------------------------------------------------|
|14----------------------------------------------|
|------------------------------------------------|
|------------------------------------------------|
 ,  .  .  .  ,  .  .  .  ,  .  .  .  ,  .  .  .

|------------------------------------------------|
|------------------------------------------------|
|------------------------------------------------|
|------------------------------------------14----|
|12----------------------------------------------|
|------------------------------------------------|
 ,  .  .  .  ,  .  .  .  ,  .  .  .  ,  .  .  .

|------------------------------------------------|
|------------------------------------------------|
|14----------------------------------------------|
|------------------------------------------14----|
|------------------------------------------------|
|------------------------------------------------|
 ,  .  .  .  ,  .  .  .  ,  .  .  .  ,  .  .  .

|------------------------------------------------|
|------------------------------------------------|
|16----------------------------------------------|
|------------------------------------------14----|
|------------------------------------------------|
|------------------------------------------------|
 ,  .  .  .  ,  .  .  .  ,  .  .  .  ,  .  .  .

|------------------------------------------------|
|------------------------------------------------|
|17----------------------------------------------|
|------------------------------------------------|
|------------------------------------------------|
|------------------------------------------------|
 ,  .  .  .  ,  .  .  .  ,  .  .  .  ,  .  .  .

|------------------------------------------------|
|------------15----------------17----18----17----|
|------------------------------------------------|
|14----------------------------------------------|
|------------------------------------------------|
|------------------------------------------------|
 ,  .  .  .  ,  .  .  .  ,  .  .  .  ,  .  .  .

 B
|------------------------------------------------|
|18--------------17------------------------------|
|--------------------------------14--------------|
|------------------------------------------------|
|------------------------------------------------|
|------------------------------------------------|
 ,  .  .  .  ,  .  .  .  ,  .  .  .  ,  .  .  .

|------------------------------------------------|
|15----------------------------------------------|
|----------------17------------------------------|
|--------------------------------15--------------|
|------------------------------------------------|
|------------------------------------------------|
 ,  .  .  .  ,  .  .  .  ,  .  .  .  ,  .  .  .

|------------------------------------------------|
|------------------------------------------------|
|14----------------------------------------------|
|----------------17--------------15--------------|
|------------------------------------------------|
|------------------------------------------------|
 ,  .  .  .  ,  .  .  .  ,  .  .  .  ,  .  .  .

|------------------------------------------------|
|------------------------------------------------|
|------------------------------14----14----15----|
|14----15----17----15----17----------------------|
|------------------------------------------------|
|------------------------------------------------|
 ,  .  .  .  ,  .  .  .  ,  .  .  .  ,  .  .  .

|18--------------17--------------15--------------|
|------------------------------------------------|
|------------------------------------------------|
|------------------------------------------------|
|------------------------------------------------|
|------------------------------------------------|
 ,  .  .  .  ,  .  .  .  ,  .  .  .  ,  .  .  .

|17--------------15--------------13--------------|
|------------------------------------------------|
|------------------------------------------------|
|------------------------------------------------|
|------------------------------------------------|
|------------------------------------------------|
 ,  .  .  .  ,  .  .  .  ,  .  .  .  ,  .  .  .
  
|12----------------------------------12-13-12----|
|------------------------------------------------|
|------------------------------------------------|
|------------------------------------------------|
|------------------------------------------------|
|------------------------------------------------|
 ,  .  .  .  ,  .  .  .  ,  .  .  .  ,  .  .  .

|------------------------------------------------|
|12----------------------------------------------|
|------------------------------------------------|
|------------------------------------------------|
|------------------------------------------------|
|------------------------------------------------|
 ,  .  .  .  ,  .  .  .  ,  .  .  .  ,  .  .  .

 C
|------12----17----------------------------------|
|------------------------------------------------|
|14----------------------------------------------|
|------------------------------------------------|
|------------------------------------------------|
|------------------------------------------------|
 ,  .  .  .  ,  .  .  .  ,  .  .  .  ,  .  .  .

|(17)--------15----------------------------------|
|------------------------------------------------|
|------------------------------------------------|
|------------------------------------------------|
|------------------------------------------------|
|------------------------------------------------|
 ,  .  .  .  ,  .  .  .  ,  .  .  .  ,  .  .  .

|(15)--------13----------------------------------|
|------------------------------------------------|
|------------------------------------------------|
|------------------------------------------------|
|------------------------------------------------|
|------------------------------------------------|
 ,  .  .  .  ,  .  .  .  ,  .  .  .  ,  .  .  .

|12----13----------12-13-12----------------------|
|------------------------------------------------|
|------------------------------------------------|
|------------------------------------------------|
|------------------------------------------------|
|------------------------------------------------|
 ,  .  .  .  ,  .  .  .  ,  .  .  .  ,  .  .  .




     
Добавлено: 01.12.2013
Другие материалы по этой песне:
  • Аккорды и текст

Страница создана 29.02.2012
http://primanota.ru/saviour-machine/the-hunger-circle-chords.htm
Привет, Гость.
Предлагаем пройти революционный курс по гитаре.
Подарок от PrimaNota.Ru, забирай!