PrimaNota.ru - самый крупный в мире бесплатный архив песенных текстов, аккордов, табулатур и нот


Saviour Machine - Love Never Dies - текст песни, таба, видео

Регистрация Запомнить меня
Войти через:  Facebook Google Twitter Vk Yandex Mail.ru

Saviour Machine - Love Never Dies - текст песни, таба, видео

Печатать
Просмотров: 118
		   "Love Never Dies"
by: Saviour Machine
album: Saviour Machine II
written by: Saviour Machine
from: kpaju@sci.fi (Kalle Paju)
(C) 1994 by the author and the composers (GEMA)

 A
|------------------------------------------------|
|------------------------------------------------|
|------------14----------16----------14----------|
|------14----------14----------------------------|
|------------------------------------------------|
|------------------------------------------------|
 ,  .  .  .  ,  .  .  .  ,  .  .  .  ,  .  .  .

|------------------------------------------------|
|------------------------15----------------------|
|------------14----16----------17----16----17----|
|------14----------------------------------------|
|------------------------------------------------|
|------------------------------------------------|
 ,  .  .  .  ,  .  .  .  ,  .  .  .  ,  .  .  .

|------------------------------------------------|
|------------------------------------------------|
|14----------14----16----17----------16----17----|
|------14----------------------------------------|
|------------------------------------------------|
|------------------------------------------------|
 ,  .  .  .  ,  .  .  .  ,  .  .  .  ,  .  .  .

|------------------------------------------------|
|15----------15----17----17-15-------------------|
|------17----------------------17-16-17-16-14-16-|
|------------------------------------------------|
|------------------------------------------------|
|------------------------------------------------|
 ,  .  .  .  ,  .  .  .  ,  .  .  .  ,  .  .  .

        Am                      Dm
AND THE CHILDREN SHALL LEAD THE ANGELS AT PLAY
       C        G
IN THE FIELD OF SLAVES
    Am                 Dm
FOR MAN IS THE HUNTED, ACCUSED, FORSAKEN AND
F                  E
SLAIN BY HIS OWN DOMAIN
    Am        Dm        C       G       
THE DIAMOND'S EDGE WILL CUT THE EYES OF
    Am    Dm      F   E
THE PAPER MASK IN PARADISE
    Am       Dm      C           G
THE FOOLS OF FORTUNE PAINT THEIR PORTRAITS ON
Am     Dm         F      E
CARNAL CRIMES AND LONELY LIES

(Guitar part B)
    Am       F        G        E
THE TIDES OF WAR THAT CRASH WITHIN
   Am        F         G         E
TO BREAK THE HEART AND LASH THE SKIN
  Am   F         G       E
A MAN AWAITS THE CHILD INSIDE

(Guitar part C)
   F       Dm     B        E
TO END HIS BLOODY REIGN IN TIME

(Guitar part A)
Am   G     F    E  Am   C       Dm     E
LOVE NEVER DIES,   LOVE NEVER DENIES
Am   G     F    E  Am   C           Dm      E
LOVE NEVER LIES,   LOVE DESPERATELY CRIES

(Guitar part D)
  F            E       F             G             Am
UNTO THE OTHER SIDE, UNTO THE UNBORN CHILD IN YOUR EYES

(Guitar part B)
Am      F         G       E
WALK BY FAITH AND WALK BY SIGHT
       Am    F         G         E
YOU'RE SANCTIFIED WITH BLOOD AND LIGHT
   Am      F      G         E
IN DAYS OF ROSES, NIGHTS SUBLIME

(Guitar part C)
    F         Dm      B       E
THE PRINCE OF PASSION LIVES DIVINE

 B
|------------------------------------------------|
|------------------------------------------------|
|14--------------16--------------17--------------|
|------------------------------------------------|
|------------------------------------------------|
|------------------------------------------------|
 ,  .  .  .  ,  .  .  .  ,  .  .  .  ,  .  .  .

|------------------------------------------------|
|------------------------------------------------|
|--------------------------------14--------------|
|15--------------17------------------------------|
|------------------------------------------------|
|------------------------------------------------|
 ,  .  .  .  ,  .  .  .  ,  .  .  .  ,  .  .  .

|------------------------------------------------|
|------------------------------------------------|
|----------------14--------------16--------------|
|17----------------------------------------------|
|------------------------------------------------|
|------------------------------------------------|
 ,  .  .  .  ,  .  .  .  ,  .  .  .  ,  .  .  .

|------------------------------------------------|
|------------------------------------------------|
|------------------------------------------------|
|14--------------15--------------17--------------|
|------------------------------------------------|
|------------------------------------------------|
 ,  .  .  .  ,  .  .  .  ,  .  .  .  ,  .  .  .

 C
|------------------------------------------------|
|------------------------------------------------|
|------------------------------------------------|
|15----------------------------14----------------|
|------------------------------------17----------|
|------------------------------------------------|
 ,  .  .  .  ,  .  .  .  ,  .  .  .  ,  .  .  .

|------------------------------------------------|
|------------------------------------------------|
|------------------------------------------------|
|------------------------------------------------|
|------------------15----14-------15-14----------|
|------------------------------------------17----|
 ,  .  .  .  ,  .  .  .  ,  .  .  .  ,  .  .  .

|------------------------|
|------------------------|
|------------------------|
|------------------------|
|14----------------------|
|------------------------|
 ,  .  .  .  ,  .  .  .     

 D
|------------------------------------------------|
|------------------------------------------------|
|------------------------------------------------|
|10-10-10-10-10----------10-10-10-10-10----------|
|8--8--8--8--8-----------8--8--8--8--8-----------|
|------------------------------------------------|
 ,  .  .  .  ,  .  .  .  ,  .  .  .  ,  .  .  .

|------------------------------------------------|
|------------------------------------------------|
|------------------------------------------------|
|9--9--9--9--9-----------9--9--9--9--9-----------|
|7--7--7--7--7-----------7--7--7--7--7-----------|
|------------------------------------------------|
 ,  .  .  .  ,  .  .  .  ,  .  .  .  ,  .  .  .

|------------------------------------------------|
|------------------------------------------------|
|------------------14-16-17----------16----17----|
|10-10-10-10-10----------------------------------|
|8--8--8--8--8-----------------------------------|
|------------------------------------------------|
 ,  .  .  .  ,  .  .  .  ,  .  .  .  ,  .  .  .

|------------------------------------------------|
|------------------------15----------------------|
|------------------16-17-------17----16----------|
|17----------------------------------------17----|
|------------------------------------------------|
|------------------------------------------------|
 ,  .  .  .  ,  .  .  .  ,  .  .  .  ,  .  .  .

Guitar solo
|------------------------------------------------|
|------------------------------------15----------|
|14----------------------16----------------------|
|------------------------------------------------|
|------------------------------------------------|
|------------------------------------------------|
 ,  .  .  .  ,  .  .  .  ,  .  .  .  ,  .  .  .

|------------------------------------------------|
|------------------------------------------------|
|17----------------------------------------------|
|------------------------14----------------------|
|------------------------------------------------|
|------------------------------------------------|
 ,  .  .  .  ,  .  .  .  ,  .  .  .  ,  .  .  .

|------------------------------------------------|
|----------------------------------------17------|
|14----------------------17------14--------------|
|------------------------------------------------|
|------------------------------------------------|
|------------------------------------------------|
 ,  .  .  .  ,  .  .  .  ,  .  .  .  ,  .  .  .

|------------------------------------------------|
|15----------------------17----------------------|
|------------------------------------------------|
|------------------------------------------------|
|------------------------------------------------|
|------------------------------------------------|
 ,  .  .  .  ,  .  .  .  ,  .  .  .  ,  .  .  .

|17----------15----------------------15----------|
|------------------18----17----15----------------|
|------------------------------------------------|
|------------------------------------------------|
|------------------------------------------------|
|------------------------------------------------|
 ,  .  .  .  ,  .  .  .  ,  .  .  .  ,  .  .  .

|------------------------------------------------|
|18----------17----15----------15----------------|
|------------------------17----------16----------|
|------------------------------------------------|
|------------------------------------------------|
|------------------------------------------------|
 ,  .  .  .  ,  .  .  .  ,  .  .  .  ,  .  .  .

|------------------------------------------------|
|------------------------15----------------15----|
|14----------16----17----------------17----------|
|------------------------------------------------|
|------------------------------------------------|
|------------------------------------------------|
 ,  .  .  .  ,  .  .  .  ,  .  .  .  ,  .  .  .

|------------------------------------------------|
|------------17----------------------------------|
|16----------------------------------------------|
|------------------------14----------------------|
|------------------------------------------------|
|------------------------------------------------|
 ,  .  .  .  ,  .  .  .  ,  .  .  .  ,  .  .  .

|------------------------------------------------|
|---------------15----15-17-15-17-18-17-18-20----|
|14-16-17-16-17----17----------------------------|
|------------------------------------------------|
|------------------------------------------------|
|------------------------------------------------|
 ,  .  .  .  ,  .  .  .  ,  .  .  .  ,  .  .  .

|------------------------------------------------|
|18-17-18-17-15----17-18-17----15----17----18----|
|------------------------------------------------|
|------------------------------------------------|
|------------------------------------------------|
|------------------------------------------------|
 ,  .  .  .  ,  .  .  .  ,  .  .  .  ,  .  .  .

|------19-20-19----------------19-20-19----------|
|17----------------17----17----------------17----|
|------------------------------------------------|
|------------------------------------------------|
|------------------------------------------------|
|------------------------------------------------|
 ,  .  .  .  ,  .  .  .  ,  .  .  .  ,  .  .  .

|------19-20-19----------------------------------|
|17----------------17----15----------------------|
|------------------------------17----16----17----|
|------------------------------------------------|
|------------------------------------------------|
|------------------------------------------------|
 ,  .  .  .  ,  .  .  .  ,  .  .  .  ,  .  .  .



     
Добавлено: 16.10.2013
Другие материалы по этой песне:
  • Аккорды и текст

Страница создана 17.03.2012
http://primanota.ru/saviour-machine/love-never-dies-chords.htm
Привет, Гость.
Предлагаем пройти революционный курс по гитаре.
Подарок от PrimaNota.Ru, забирай!