PrimaNota.ru - самый крупный в мире бесплатный архив песенных текстов, аккордов, табулатур и нот


Saviour Machine - Legion - таба, видео

Регистрация Запомнить меня
Войти через:  Facebook Google Twitter Vk Yandex Mail.ru

Saviour Machine - Legion - таба, видео

Печатать
Просмотров: 73
		   "Legion"
by: Saviour Machine
album: Saviour Machine
written by: Saviour Machine
from: kpaju@sci.fi (Kalle Paju)
(C) Malineum Productions (ASCAP)


Another classic song from Saviour Machine. I decided
to write only the chords of this song. Reason for this
is very simple. Jeff has played many little things
in this song, short melodies etc. I didn't want to
spend all day putting them together in one piece.
I wrote the melodies in the end so you can pick them
up from there.If you want to play this song acoustic
the chords are A5=Am, G5=G, F5=F, B5=Bm, C5=C


 A
|------------------------------------------------|
|------------------------------------------------|
|------4-----5-----4-----7-----5-----4--5--4-----|
|7-----------------------------------------------|
|------------------------------------------------|
|------------------------------------------------|
|,  .  .  .  ,  .  .  .  ,  .  .  .  ,  .  .  .  |
|------------------------------------------------|
|------------------------------------------------|
|------------------------------------------------|
|------------------------------------------------|
|7--7--7--7--7-----------7--7--7--7--7-----------|
|5--5--5--5--5-----------5--5--5--5--5-----------|
 ,  .  .  .  ,  .  .  .  ,  .  .  .  ,  .  .  .

|------------------------------------------------|
|------------------------------------------------|
|------4-----5-----4-----7-----5-----9-----7-----|
|7-----------------------------------------------|
|------------------------------------------------|
|------------------------------------------------|
|,  .  .  .  ,  .  .  .  ,  .  .  .  ,  .  .  .  |
|------------------------------------------------|
|------------------------------------------------|
|------------------------------------------------|
|------------------------------------------------|
|5--5--5--5--5-----------5--5--5--5--5-----------|
|3--3--3--3--3-----------3--3--3--3--3-----------|
 ,  .  .  .  ,  .  .  .  ,  .  .  .  ,  .  .  .

|------------------------------------------------|
|------------------------------------------------|
|10----9-----7-----5-----7-----5-----4-----5-----|
|------------------------------------------------|
|------------------------------------------------|
|------------------------------------------------|
|,  .  .  .  ,  .  .  .  ,  .  .  .  ,  .  .  .  |
|------------------------------------------------|
|------------------------------------------------|
|------------------------------------------------|
|------------------------------------------------|
|3--3--3--3--3-----------3--3--3--3--3-----------|
|1--1--1--1--1-----------1--1--1--1--1-----------|
 ,  .  .  .  ,  .  .  .  ,  .  .  .  ,  .  .  .

|------------------------------------------------|
|------------------------------------------------|
|4-----------------4--5--7----5------4-----------|
|------------------------------------------5-----|
|------------------------------------------------|
|------------------------------------------------|
|,  .  .  .  ,  .  .  .  ,  .  .  .  ,  .  .  .  |
|------------------------------------------------|
|------------------------------------------------|
|------------------------------------------------|
|------------------------------------------------|
|5--5--5--5--5-----------5--5-----5--5--5--5--5--|
|3--3--3--3--3-----------3--3-----3--3--3--3--3--|
 ,  .  .  .  ,  .  .  .  ,  .  .  .  ,  .  .  .

A5                    G5
LEGION MOVES OVER THE LAND
F5                     G5
SOFTLY HE WHISPERS HIS FORCES COMMAND
A5                    G5
NAKED SHE LIES ON THE CRUCIFIX CRYING
    F5           G5       A5    G5 F5
THE TEARS OF THE INNOCENT DIE
           G5                 A5      G5 F5
THE DRAGON SLIDES BETWEEN HER TIGHS
           G5                 A5      G5 F5
THE DRAGON SLIDES BETWEEN HER TIGHS
           G5
THE DRAGON BREATHES THE FIRE
   C5          G5       F5
AS BLOOD DRIPS FROM HER EYES
        G5             A5
UNTIL DELIVERED OF THE CHILD

B5 C5 B5 A5 B5 C5 B5

    A5                     G5
AND ALL THE LEADERS OF THE NATIONS FOLLOW SINGLE FILE
    F5                             G5
AND ALL THE BROTHERS OF THE LEGION DRIFT UPON THE NILE
            A5
TO FACE THE BEAST IN ALL ITS ECSTASY
    G5
AND DREAMS OF OUR BETRAYAL
   F5
AS LOVE WILL DIE WITHIN THE FORCE
     G5
THET DRAINS IT FROM THE GRAIL
    A5
SHE DRINKS THE BLOOD OF PROPHETS
        G5
AND SHE DRINKS THE BLOOD OF SAINTS
            F5
BETWEEN HER LEGS THEY CRAWL IN TORMENT
        G5
FOR THE SOULS THEY LAY TO WASTE
         A5                     G5
UPON THE ALTAR, THE SACRIFICE BEGINS
                  F5                         G5
THE DRAGON TAKES ANOTHER, AND FEEDS UPON HIS SINS
                     A5
TO LIVE AND BREATHE AGAIN
          G5               F5
UNDER THE NIGHT, UNDER THE LIAR
         G5              A5     G5 F5
INTO THE NIGHT, INTO THE FIRE

            G5            A5    G5 F5
IS THIS THE COMING OF THE DAY?
       G5              C5     G5        F5    C5
AS THE ALLIANCE OF THE DRAGON TAKES ITS PREY
            G5      A5           G5 F5
IS THIS THE CALL OF REVOLUTION?
            G5          C5     G5     F5     C5
IS THIS THE FALL OF REVOLUTION OF THE SOUL?
            G5                  A5        G5 F5
IS THIS THE CRY FROM ALL THE CORRUPTION?
         G5             C5       G5    F5    C5
OR IS CORRUPTION JUST A FORTRESS WE BESTOW?
              G5              A5      G5 F5
AND IF YOU'RE LOOKING FOR THE ANSWER
              G5              C5         G5        F5    C5
AND IF YOU'RE LOOKING FOR THE LIGHT THAT LEADS THE WAY
        G5              A5        G5 F5
TAKE MY HAND AND I WILL LEAD YOU
          G5              C5        G5     F5
WHERE THE TORTURE AND THE PAIN WILL DRIFT AWAY
G5        A5
STAY WITH ME






|------------------------17----------------------|
|------------17----------------------------------|
|14----------------------------------------------|
|------------------------------------------------|
|------------------------------------------------|
|------------------------------------------------|
|,  .  .  .  ,  .  .  .  ,  .  .  .  ,  .  .  .  |

|------------------------15----------------------|
|------------17----------------------------------|
|14----------------------------------------------|
|------------------------------------------------|
|------------------------------------------------|
|------------------------------------------------|
|,  .  .  .  ,  .  .  .  ,  .  .  .  ,  .  .  .  |



|5-----------------------------------------------|
|--------5-------3-------1-----------------------|
|------------------------------------------------|
|------------------------------------------------|
|------------------------------------------------|
|------------------------------------------------|
|,  .  .  .  ,  .  .  .  ,  .  .  .  ,  .  .  .  |



|------------------------------------------------|
|------------------------------------------------|
|------------------------7-----------------------|
|10----------------------------------------------|
|------------------------------------------------|
|------------------------------------------------|
|,  .  .  .  ,  .  .  .  ,  .  .  .  ,  .  .  .  |

|------------------------------------------------|
|------------------------------------------------|
|9-----------------------------------------------|
|------------------------7-----------------------|
|------------------------------------------------|
|------------------------------------------------|
|,  .  .  .  ,  .  .  .  ,  .  .  .  ,  .  .  .  |

|------------------------------------------------|
|------------------------------------------------|
|10----------------9-----7-----------------------|
|------------------------------------------10----|
|------------------------------------------------|
|------------------------------------------------|
|,  .  .  .  ,  .  .  .  ,  .  .  .  ,  .  .  .  |

|------------------------------------------------|
|------------------------------------------------|
|9-----------7-----------------------------------|
|------------------------10----------------------|
|------------------------------------------------|
|------------------------------------------------|
|,  .  .  .  ,  .  .  .  ,  .  .  .  ,  .  .  .  |

|------------------------------------------------|
|------------------------------------------------|
|---12-10-9--12-10-9--10-9-----------------------|
|------------------------------------------------|
|------------------------------------------------|
|------------------------------------------------|
|,  .  .  .  ,  .  .  .  ,  .  .  .  ,  .  .  .  |

|------------------------------------------------|
|------------------------10----------------------|
|12----------------------------------------------|
|------------------------------------------------|
|------------------------------------------------|
|------------------------------------------------|
|,  .  .  .  ,  .  .  .  ,  .  .  .  ,  .  .  .  |

|------------------------13----------------12----|
|12----------13----------------------------------|
|------------------------------------------------|
|------------------------------------------------|
|------------------------------------------------|
|------------------------------------------------|
|,  .  .  .  ,  .  .  .  ,  .  .  .  ,  .  .  .  |

|10----------------------12----------10----------|
|------------------13----------------------------|
|------------------------------------------------|
|------------------------------------------------|
|------------------------------------------------|
|------------------------------------------------|
|,  .  .  .  ,  .  .  .  ,  .  .  .  ,  .  .  .  |

|---------------------------------------------10-|
|13----------------------------------------13----|
|------------------------------------------------|
|------------------------------------------------|
|------------------------------------------------|
|------------------------------------------------|
|,  .  .  .  ,  .  .  .  ,  .  .  .  ,  .  .  .  |

|------------------------10----------------------|
|12----------------12-13-------13----12----------|
|------------------------------------------12----|
|------------------------------------------------|
|------------------------------------------------|
|------------------------------------------------|
|,  .  .  .  ,  .  .  .  ,  .  .  .  ,  .  .  .  |

     
Добавлено: 28.07.2013
Другие материалы по этой песне:
  • Аккорды и текст

Страница создана 28.07.2013
http://primanota.ru/saviour-machine/legion-chords.htm
Привет, Гость.
Предлагаем пройти революционный курс по гитаре.
Подарок от PrimaNota.Ru, забирай!