PrimaNota.ru - самый крупный в мире бесплатный архив песенных текстов, аккордов, табулатур и нот


Saviour Machine - Killer - текст песни, таба, видео

Регистрация Запомнить меня
Войти через:  Facebook Google Twitter Vk Yandex Mail.ru

Saviour Machine - Killer - текст песни, таба, видео

Печатать
Просмотров: 104
		   "Killer"
by: Saviour Machine
album: Saviour Machine
written by: Saviour Machine
from: kpaju@sci.fi (Kalle Paju)
(C) Malineum Productions (ASCAP)



 A
|------------------------------------------------|
|------------------------------------------------|
|5-----0-----4-----5-----4-----------0-----------|
|------------------------------------------------|
|------------------------------------------------|
|------------------------------------------------|
|,  .  .  .  ,  .  .  .  ,  .  .  .  ,  .  .  .  |
|                                                |
|------------------------------------------------|
|------------------------------------------------|
|------------------------------------------------|
|5-----------------------------------------------|
|3-----5-----5-----5-----5-----5-----5--5--5--5--|
|------3-----3-----3-----3-----3-----3--3--3--3--|
|,  .  .  .  ,  .  .  .  ,  .  .  .  ,  .  .  .  |

|------------------------------------------------|
|------------------------------------------------|
|5-----0-----4-----5-----4-----5-----4-----------|
|------------------------------------------------|
|------------------------------------------------|
|------------------------------------------------|
|,  .  .  .  ,  .  .  .  ,  .  .  .  ,  .  .  .  |
|                                                |
|------------------------------------------------|
|------------------------------------------------|
|------------------------------------------------|
|5-----------------------------------------------|
|3-----4-----4-----4-----4-----4-----4--4--4--4--|
|------2-----2-----2-----2-----2-----2--2--2--2--|
|,  .  .  .  ,  .  .  .  ,  .  .  .  ,  .  .  .  |

 B
|------------------------------------------------|
|------------------------------------------------|
|------5--6--5-----------------------------------|
|5--6--------------6-----5-----------5-----6-----|
|------------------------------8-----------------|
|------------------------------------------------|
|,  .  .  .  ,  .  .  .  ,  .  .  .  ,  .  .  .  |

|------------------------------------------------|
|------------------------------------------------|
|------------------------------------------------|
|5-----------------------------------------------|
|------------------------------------------------|
|------------------------------------------------|
|,  .  .  .  ,  .  .  .  ,  .  .  .  ,  .  .  .  |

|------------------------------------------------|
|------------------------------------------------|
|------5--6--5-----------------------------------|
|5--6--------------6-----5-----------5-----6-----|
|------------------------------8-----------------|
|------------------------------------------------|
|,  .  .  .  ,  .  .  .  ,  .  .  .  ,  .  .  .  |

|------------------------------------------------|
|------------------------------------------------|
|5-----------------------------------------------|
|------------------------------------------------|
|------------------------------------------------|
|------------------------------------------------|
|,  .  .  .  ,  .  .  .  ,  .  .  .  ,  .  .  .  |

 C
|------------------------------------------------|
|------5--6--8-----6--8--898---6-----565---------|
|5--6--------------------------------------6-----|
|------------------------------------------------|
|------------------------------------------------|
|------------------------------------------------|
|,  .  .  .  ,  .  .  .  ,  .  .  .  ,  .  .  .  |

|------------------------------6-----------------|
|------5--6--8-----6--8--8--9--------8-----------|
|5--6--------------------------------------------|
|------------------------------------------------|
|------------------------------------------------|
|------------------------------------------------|
|,  .  .  .  ,  .  .  .  ,  .  .  .  ,  .  .  .  |

 D
|------------------------------------------------|
|------------------------------------------------|
|------------------------------------------------|
|---5--------5-----------5-----------5-----------|
|4--3--------3-----3--3--3-----3--3--3--3--3--3--|
|------------------------------------------------|
|,  .  .  .  ,  .  .  .  ,  .  .  .  ,  .  .  .  |

 E
|------------------------------------------------|
|------------------------------------------------|
|------------------------------------------------|
|------------------------------------------------|
|3-----------4-----------3-----------4-----------|
|1-----------2-----------1-----------2-----------|
|,  .  .  .  ,  .  .  .  ,  .  .  .  ,  .  .  .  |

 F
|------------------------------------------------|
|------------------------------------------------|
|------------------------------------------------|
|---5--------------------------------------------|
|4--3--------------------------------------------|
|------------------------------------------------|
|,  .  .  .  ,  .  .  .  ,  .  .  .  ,  .  .  .  |

|------------------------------------------------|
|------------------------------------------------|
|------------------------------------------------|
|------------------------------------------------|
|3-----------------------------------------------|
|1-----------------------------------------------|
|,  .  .  .  ,  .  .  .  ,  .  .  .  ,  .  .  .  |

|------------------------------------------------|
|------------------------------------------------|
|------------------------------------------------|
|---5--------------------------------------------|
|4--3--------------------------------------------|
|------------------------------------------------|
|,  .  .  .  ,  .  .  .  ,  .  .  .  ,  .  .  .  |

|------------------------------------------------|
|------------------------------------------------|
|------------------------------------------------|
|3-----------------------------------------------|
|1-----------------------------------------------|
|------------------------------------------------|
|,  .  .  .  ,  .  .  .  ,  .  .  .  ,  .  .  .  |

|------------------------------------------------|
|------------------------------------------------|
|------------------------------------------------|
|---5--------------------------------------------|
|4--3--------------------------------------------|
|------------------------------------------------|
|,  .  .  .  ,  .  .  .  ,  .  .  .  ,  .  .  .  |

|------------------------------------------------|
|------------------------------------------------|
|------------------------------------------------|
|------------------------------------------------|
|3-----------------------------------------------|
|1-----------------------------------------------|
|,  .  .  .  ,  .  .  .  ,  .  .  .  ,  .  .  .  |

|------------------------------------------------|
|------------------------------------------------|
|------------------------------------------------|
|------------------------------------------------|
|4-----------------------------------------------|
|2-----------------------------------------------|
|,  .  .  .  ,  .  .  .  ,  .  .  .  ,  .  .  .  |

|------------------------------------------------|
|------------------------------------------------|
|------------------------------------------------|
|------------------------------------------------|
|6-----------------------------------------------|
|4-----------------------------------------------|
|,  .  .  .  ,  .  .  .  ,  .  .  .  ,  .  .  .  |

 G
|------------------------------------------------|
|------------------------------------------------|
|------------------------------------------------|
|------------------------------------------------|
|8-----------------------------------------------|
|6-----------------------------------------------|
|,  .  .  .  ,  .  .  .  ,  .  .  .  ,  .  .  .  |

|------------------------------------------------|
|------------------------------------------------|
|------------------------------------------------|
|------------------------8-----------------------|
|6-----------------------6-----------------------|
|4-----------------------------------------------|
|,  .  .  .  ,  .  .  .  ,  .  .  .  ,  .  .  .  |

 H
|------------------------------------------------|
|------------------------------------------------|
|------------------------------------------------|
|------------------------------------------------|
|8-----------------------------------------------|
|6-----------------------------------------------|
|,  .  .  .  ,  .  .  .  ,  .  .  .  ,  .  .  .  |

|------------------------------------------------|
|------------------------------------------------|
|------------------------------------------------|
|------------------------------------------------|
|6-----------------------8-----------------------|
|4-----------------------6-----------------------|
|,  .  .  .  ,  .  .  .  ,  .  .  .  ,  .  .  .  |

 I
|------------------------------------------------|
|------------------------------------------------|
|------------------------------------------------|
|5-----------------------------------------------|
|3-------6-------5-------------------------------|
|--------4-------3-------------------------------|
|,  .  .  .  ,  .  .  .  ,  .  .  .  ,  .  .  .  |

|------------------------------------------------|
|------------------------------------------------|
|------------------------------------------------|
|8---------------6--5----------------------------|
|6-------8-------4--3----------------------------|
|--------6---------------------------------------|
|,  .  .  .  ,  .  .  .  ,  .  .  .  ,  .  .  .  |

|------------------------------------------------|
|------------------------------------------------|
|------------------------------------------------|
|5-----------------------------------------------|
|3-------6-------5-------------------------------|
|--------4-------3-------------------------------|
|,  .  .  .  ,  .  .  .  ,  .  .  .  ,  .  .  .  |

|------------------------------------------------|
|------------------------------------------------|
|------------------------------------------------|
|------------------------------------------------|
|6-----------------------8-----------------------|
|4-----------------------6-----------------------|
|,  .  .  .  ,  .  .  .  ,  .  .  .  ,  .  .  .  |

 Guitar solo
|------------------------------------------------|
|------------------------------------------------|
|------5--6--5-----------------------------------|
|5--6--------------6-----5-----------5-----6-----|
|------------------------------8-----------------|
|------------------------------------------------|
|,  .  .  .  ,  .  .  .  ,  .  .  .  ,  .  .  .  |

|------------------------------------------------|
|------------------------------------------------|
|------------------------------------------------|
|5-----------------------------------------------|
|------------------------------------------------|
|------------------------------------------------|
|,  .  .  .  ,  .  .  .  ,  .  .  .  ,  .  .  .  |

|------------------------------------------------|
|------------------------------------------------|
|------5--6--5-----------------------------------|
|5--6--------------6-----5-----------5-----6-----|
|------------------------------8-----------------|
|------------------------------------------------|
|,  .  .  .  ,  .  .  .  ,  .  .  .  ,  .  .  .  |

|------------------------------------------------|
|------------------------------------------------|
|5-----------------------------------------5--7--|
|------------------------------------------------|
|------------------------------------------------|
|------------------------------------------------|
|,  .  .  .  ,  .  .  .  ,  .  .  .  ,  .  .  .  |

|------------------------------------------------|
|------------------------------------------------|
|8-----------------------------------7-----------|
|------------------------------------------8-----|
|------------------------------------------------|
|------------------------------------------------|
|,  .  .  .  ,  .  .  .  ,  .  .  .  ,  .  .  .  |

|------------------------------------------------|
|------------------------------------------------|
|------------------------------------------5--7--|
|5-----------------------------------------------|
|------------------------------------------------|
|------------------------------------------------|
|,  .  .  .  ,  .  .  .  ,  .  .  .  ,  .  .  .  |

|------------------------------------------------|
|------------------------------------------------|
|8-----------------------------------7-----------|
|------------------------------------------8-----|
|------------------------------------------------|
|------------------------------------------------|
|,  .  .  .  ,  .  .  .  ,  .  .  .  ,  .  .  .  |

|------------------------------------------------|
|8-----------------------------------------6--8--|
|------------------------------------------------|
|------------------------------------------------|
|------------------------------------------------|
|------------------------------------------------|
|,  .  .  .  ,  .  .  .  ,  .  .  .  ,  .  .  .  |

|------------------------------------------------|
|9-----------------------6-----------------------|
|------------------------------------------------|
|------------------------------------------------|
|------------------------------------------------|
|------------------------------------------------|
|,  .  .  .  ,  .  .  .  ,  .  .  .  ,  .  .  .  |

|------------------------------------------------|
|8-----------------------------------------6--8--|
|------------------------------------------------|
|------------------------------------------------|
|------------------------------------------------|
|------------------------------------------------|
|,  .  .  .  ,  .  .  .  ,  .  .  .  ,  .  .  .  |

|------------------------------------------------|
|9-----------------------6-----------------------|
|------------------------------------------------|
|------------------------------------------------|
|------------------------------------------------|
|------------------------------------------------|
|,  .  .  .  ,  .  .  .  ,  .  .  .  ,  .  .  .  |

|8-----------------------------------------------|
|------------------------------------------13-15-|
|------------------------------------------------|
|------------------------------------------------|
|------------------------------------------------|
|------------------------------------------------|
|,  .  .  .  ,  .  .  .  ,  .  .  .  ,  .  .  .  |

|------------------------------------------------|
|16----------------------------------15----------|
|------------------------------------------15----|
|------------------------------------------------|
|------------------------------------------------|
|------------------------------------------------|
|,  .  .  .  ,  .  .  .  ,  .  .  .  ,  .  .  .  |

|------------------------------------------------|
|------------------------------------------13-15-|
|12----------------------------------------------|
|------------------------------------------------|
|------------------------------------------------|
|------------------------------------------------|
|,  .  .  .  ,  .  .  .  ,  .  .  .  ,  .  .  .  |

|------------------------------------------------|
|16----------------------------------15----------|
|------------------------------------------15----|
|------------------------------------------------|
|------------------------------------------------|
|------------------------------------------------|
|,  .  .  .  ,  .  .  .  ,  .  .  .  ,  .  .  .  |

|------------------------15----------------------|
|------------------------------------------------|
|12----------------------------------------------|
|------------------------------------------------|
|------------------------------------------------|
|------------------------------------------------|
|,  .  .  .  ,  .  .  .  ,  .  .  .  ,  .  .  .  |

|12-13-12----------------------------------------|
|---------13-14----13----11-13-11----------------|
|---------------------------------12-12----------|
|------------------------------------------------|
|------------------------------------------------|
|------------------------------------------------|
|,  .  .  .  ,  .  .  .  ,  .  .  .  ,  .  .  .  |

|------------------------------------------------|
|------------------------------8-----------------|
|12-13-12-10-9-----9109--6-----------5-----------|
|------------------------------------------------|
|------------------------------------------------|
|------------------------------------------------|
|,  .  .  .  ,  .  .  .  ,  .  .  .  ,  .  .  .  |

 J
|------------------------------------------------|
|------------6--5--------------------------------|
|6--5--5--5--------5--5--6--5--5--5--6--5--5--5--|
|------------------------------------------------|
|------------------------------------------------|
|------------------------------------------------|
|,  .  .  .  ,  .  .  .  ,  .  .  .  ,  .  .  .  |

 K
|------------------------------------------------|
|------------------------------------------------|
|6-----------------------6-----------------------|
|6-----------------------6-----------------------|
|4-----------------------4-----------------------|
|------------------------------------------------|
|,  .  .  .  ,  .  .  .  ,  .  .  .  ,  .  .  .  |

 L
|------------------------------------------------|
|------------------------------------------------|
|------------------------------------------------|
|5-----------------------3-----------------------|
|3-----------------------1-----------------------|
|------------------------------------------------|
|,  .  .  .  ,  .  .  .  ,  .  .  .  ,  .  .  .  |

|------------------------------------------------|
|------------------------------------------------|
|------------------------------------------------|
|------------------------------------------------|
|6-----------------------8-----------------------|
|4-----------------------6-----------------------|
|,  .  .  .  ,  .  .  .  ,  .  .  .  ,  .  .  .  |

 M
|------------------------------------------------|
|------------------------------------------------|
|------------------------------------------------|
|5-----------------------------------------------|
|3-----------------------------------------------|
|------------------------------------------------|
|,  .  .  .  ,  .  .  .  ,  .  .  .  ,  .  .  .  |

|------------------------------------------------|
|------------------------------------------------|
|------------------------------------------------|
|3-----------------------------------------------|
|1-----------------------------------------------|
|------------------------------------------------|
|,  .  .  .  ,  .  .  .  ,  .  .  .  ,  .  .  .  |

|------------------------------------------------|
|------------------------------------------------|
|------------------------------------------------|
|------------------------------------------------|
|6-----------------------3-----------------------|
|4-----------------------1-----------------------|
|,  .  .  .  ,  .  .  .  ,  .  .  .  ,  .  .  .  |

|------------------------------------------------|
|------------------------------------------------|
|------------------------------------------------|
|------------------------------------------------|
|5-----------------------6-----------8-----------|
|3-----------------------4-----------6-----------|
|,  .  .  .  ,  .  .  .  ,  .  .  .  ,  .  .  .  |



A x4
B
C x2
D x2
E x2
C
D x2
E x2
C
F
G x3
H
I
Guitar solo
C x2
I
C x2
J x4
K x2
D x2
J x4
K x4
A x18
C x2
A x3
C
L
M x4
I
B
A ...
     
Добавлено: 14.07.2013
Другие материалы по этой песне:
  • Аккорды и текст

Страница создана 04.05.2012
http://primanota.ru/saviour-machine/killer-chords.htm
Привет, Гость.
Предлагаем пройти революционный курс по гитаре.
Подарок от PrimaNota.Ru, забирай!