PrimaNota.ru - самый крупный в мире бесплатный архив песенных текстов, аккордов, табулатур и нот


Saviour Machine - Force Of The Entity - текст песни, таба, видео

Регистрация Запомнить меня
Войти через:  Facebook Google Twitter Vk Yandex Mail.ru

Saviour Machine - Force Of The Entity - текст песни, таба, видео

Печатать
Просмотров: 96
		   "Force of the Entity"
by: Saviour Machine
album: Saviour Machine
written by: Saviour Machine
from: kpaju@sci.fi (Kalle Paju)
(C) 1997 Malineum Productions (ASCAP)

 I did'nt want to spend a lot of time writing this tab
 so I just put the main things. Basicly the whole song
 is here but I cut off some rhythm parts from the verse
 because It takes so much time to find out how they
 actually go. However, here are the chords. Listen to
 the CD and you'll get the rhythm right.

 A
|------------------------------------------------|
|---8--9-----8-----------------------------------|
|---------10----8--10-7--8-----7--------7--8--10-|
|10-------------------------10----8--10----------|
|------------------------------------------------|
|------------------------------------------------|
|,  .  .  .  ,  .  .  .  ,  .  .  .  ,  .  .  .  |
|------------------------------------------------|
|------------------------------------------------|
|------------------------------------------------|
|---5--6-----5-----------------------------------|
|---------8-----6--8--5--6-----5--------5--6--8--|
|8--------------------------8-----6--8-----------|
 ,  .  .  .  ,  .  .  .  ,  .  .  .  ,  .  .  .

|------------------------------------------------|
|8-----------------------------------------------|
|---10-8--7--10-8--7-----8--7--------10-8--7--8--|
|---------------------10-------10-8--------------|
|------------------------------------------------|
|------------------------------------------------|
|,  .  .  .  ,  .  .  .  ,  .  .  .  ,  .  .  .  |
|------------------------------------------------|
|------------------------------------------------|
|------------------------------------------------|
|5-----------------------------------------------|
|---8--6--5--8--6--5-----6--5--------8--6--5--6--|
|---------------------8--------8--6--------------|
 ,  .  .  .  ,  .  .  .  ,  .  .  .  ,  .  .  .

 B
|------------------------------------------------|
|------------------------------------------------|
|5-----------------------------------------------|
|5-----------------------------------------------|
|3-----------------------------------------------|
|------------------------------------------------|
 ,  .  .  .  ,  .  .  .  ,  .  .  .  ,  .  .  .

|------------------------------------------------|
|------------------------------------------------|
|------------------------------------------------|
|6-----------------------8-----------------------|
|6-----------------------8-----------8--6--5--6--|
|4-----------------------6-----------------------|
 ,  .  .  .  ,  .  .  .  ,  .  .  .  ,  .  .  .


 Chorus
|------------------------------------------------|
|------------------------------------------------|
|5-----------------------------------------------|
|5-----------------------8-----------------------|
|3-----------------------8-----------------------|
|------------------------6-----------------------|
 ,  .  .  .  ,  .  .  .  ,  .  .  .  ,  .  .  .

|------------------------------------------------|
|------------------------------------------------|
|------------------------------------------------|
|6-----------------------8-----------------------|
|6-----------------------8-----------------------|
|4-----------------------6-----------------------|
 ,  .  .  .  ,  .  .  .  ,  .  .  .  ,  .  .  .

|------------------------------------------------|
|------------------------------------------------|
|------------------------------------------------|
|6-----------------------8-----------------------|
|6-----------------------8-----------------------|
|4-----------------------6-----------------------|
 ,  .  .  .  ,  .  .  .  ,  .  .  .  ,  .  .  .

|------------------------------------------------|
|------------------------------------------------|
|------------------------------------------------|
|---5--6-----5-----------------------------------|
|---------8-----6--8--5--6-----5--------5--6--8--|
|8--------------------------8-----6--8-----------|
 ,  .  .  .  ,  .  .  .  ,  .  .  .  ,  .  .  .

|------------------------------------------------|
|------------------------------------------------|
|------------------------------------------------|
|6-----------------------8-----------------------|
|6-----------------------8-----------------------|
|4-----------------------6-----------------------|
 ,  .  .  .  ,  .  .  .  ,  .  .  .  ,  .  .  .

|------------------------------------------------|
|------------------------------------------------|
|------------------------------------------------|
|---5--6-----5-----------------------------------|
|---------8-----6--8--5--6-----5--------5--6--8--|
|8--------------------------8-----6--8-----------|
 ,  .  .  .  ,  .  .  .  ,  .  .  .  ,  .  .  .

|------------------------------------------------|
|------------------------------------------------|
|------------------------------------------------|
|5-----------------------------------------------|
|---8--6--5--8--6--5-----6--5--------8--6--5--6--|
|---------------------8--------8--6--------------|
 ,  .  .  .  ,  .  .  .  ,  .  .  .  ,  .  .  .


    G#5          Bb5    C5     Bb5 G#5 Bb5
THE FORCE OF THE ENTITY REIGNS ON  ME
C5            Bb5       G#5          Bb5
REIGNS ON THE SACRILEGE HEART OF THE BEAST
C5    Bb5 G#5 Bb5
REIGN ON  ME
C5           Bb5           G#5         Bb5
REIGN ON THE CHILDREN THAT WALK IN THE PATH OF THE FREE

     
Добавлено: 15.08.2013
Другие материалы по этой песне:
  • Аккорды и текст

Страница создана 19.05.2012
http://primanota.ru/saviour-machine/force-of-the-entity-chords.htm
Привет, Гость.
Предлагаем пройти революционный курс по гитаре.
Подарок от PrimaNota.Ru, забирай!