PrimaNota.ru - самый крупный в мире бесплатный архив песенных текстов, аккордов, табулатур и нот


Saviour Machine - Enter The Idol - текст песни, таба, видео

Регистрация Запомнить меня
Войти через:  Facebook Google Twitter Vk Yandex Mail.ru

Saviour Machine - Enter The Idol - текст песни, таба, видео

Печатать
Просмотров: 106
		   "Enter the Idol"
by: Saviour Machine
album: Saviour Machine II
written by: Saviour Machine
from: kpaju@sci.fi (Kalle Paju)
(C) 1994 By the author and the composers (GEMA)


The idea is same as in "Child In Silence." Delay
plays every other sound (delay time approximately
300 m.s.  , no feedback). You can decide if you're
using delay with rhythm guitar in part B or not. 
I do, because I think it sounds good.



 A
|------------------------------12----------------|
|------12----------12----------------------12----|
|9-----------9-----------9-----------9-----------|
|------------------------------------------------|
|------------------------------------------------|
|------------------------------------------------|
 ,  .  .  .  ,  .  .  .  ,  .  .  .  ,  .  .  .   

|------------------------------------------------|
|------12----------12----------10----------10----|
|9-----------9-----------9-----------9-----------|
|------------------------------------------------|
|------------------------------------------------|
|------------------------------------------------|
 ,  .  .  .  ,  .  .  .  ,  .  .  .  ,  .  .  .

 B
|------------------12----------------------------|
|------------------------------------------------|
|9-----------------------------------------------|
|------------------------------------------------|
|------------------------------------------------|
|------------------------------------------------|
|,  .  .  .  ,  .  .  .  ,  .  .  .  ,  .  .  .  |
|------------------------------------------------|
|------------------------------------------------|
|------------------------------------------------|
|------------------9-----------------------------|
|2-----------------7-----------------------------|
|0-----------------------------------------------|
 ,  .  .  .  ,  .  .  .  ,  .  .  .  ,  .  .  .   

|------------------10----------------------------|
|11----------------------------------------------|
|------------------------------------------------|
|------------------------------------------------|
|------------------------------------------------|
|------------------------------------------------|
|,  .  .  .  ,  .  .  .  ,  .  .  .  ,  .  .  .  |
|------------------------------------------------|
|------------------------------------------------|
|------------------------------------------------|
|------------------10----------------------------|
|8-----------------8-----------------------------|
|6-----------------------------------------------|
 ,  .  .  .  ,  .  .  .  ,  .  .  .  ,  .  .  .   

 C
|------------------------------------------------|
|12----10----13----10----12----------------------|
|------------------------------------------------|
|------------------------------------------------|
|------------------------------------------------|
|------------------------------------------------|
 ,  .  .  .  ,  .  .  .  ,  .  .  .  ,  .  .  .   

|12----------------------------------------------|
|------13----12----------------------------------|
|------------------12----14----------------------|
|------------------------------------------------|
|------------------------------------------------|
|------------------------------------------------|
 ,  .  .  .  ,  .  .  .  ,  .  .  .  ,  .  .  .   

|15----------------------------------------12----|
|------15----13----12----13----------------------|
|------------------------------------------------|
|------------------------------------------------|
|------------------------------------------------|
|------------------------------------------------|
 ,  .  .  .  ,  .  .  .  ,  .  .  .  ,  .  .  .   

|12----------------------------------------------|
|------13----12----------12---------------(12)---|
|------------------14----------------------------|
|------------------------------------------------|
|------------------------------------------------|
|------------------------------------------------|
 ,  .  .  .  ,  .  .  .  ,  .  .  .  ,  .  .  .   

 D
|12----------------------------------------------|
|------------------------------------------------|
|------------------12----14----------12----------|
|------------------------------------------------|
|------------------------------------------------|
|------------------------------------------------|
 ,  .  .  .  ,  .  .  .  ,  .  .  .  ,  .  .  .   

|------------------------------------------------|
|15----------------------------------------------|
|------------14----------12----------11----------|
|------------------------------------------------|
|------------------------------------------------|
|------------------------------------------------|
 ,  .  .  .  ,  .  .  .  ,  .  .  .  ,  .  .  .   

|------------------------------------------------|
|13----------------------------------------------|
|------------11----------9-----------------7-----|
|------------------------------------------------|
|------------------------------------------------|
|------------------------------------------------|
 ,  .  .  .  ,  .  .  .  ,  .  .  .  ,  .  .  .   

Guitar solo
|------------------------------------------------|
|------12----13----13----12----10----12----13----|
|9-----------------------------------------------|
|------------------------------------------------|
|------------------------------------------------|
|------------------------------------------------|
 ,  .  .  .  ,  .  .  .  ,  .  .  .  ,  .  .  .   

|------------------------------------------------|
|12----------------------------------------------|
|------9-----------------------------------------|
|------------------------------------------------|
|------------------------------------------------|
|------------------------------------------------|
 ,  .  .  .  ,  .  .  .  ,  .  .  .  ,  .  .  .   

|------------------------------------------------|
|------12----13----13----12----10----12----13----|
|9-----------------------------------------------|
|------------------------------------------------|
|------------------------------------------------|
|------------------------------------------------|
 ,  .  .  .  ,  .  .  .  ,  .  .  .  ,  .  .  .   

|12----------------------------------------------|
|------------------------12----------------17----|
|------------------------------------------------|
|------------------------------------------------|
|------------------------------------------------|
|------------------------------------------------|
 ,  .  .  .  ,  .  .  .  ,  .  .  .  ,  .  .  .   

|------19----20----20----19----17----19----20----|
|17----------------------------------------------|
|------------------------------------------------|
|------------------------------------------------|
|------------------------------------------------|
|------------------------------------------------|
 ,  .  .  .  ,  .  .  .  ,  .  .  .  ,  .  .  .   

|19----------------------------------------------|
|------17----------------------------------------|
|------------------------------------------------|
|------------------------------------------------|
|------------------------------------------------|
|------------------------------------------------|
 ,  .  .  .  ,  .  .  .  ,  .  .  .  ,  .  .  .   

|------19----20----20----19----17----19----20----|
|17----------------------------------------------|
|------------------------------------------------|
|------------------------------------------------|
|------------------------------------------------|
|------------------------------------------------|
 ,  .  .  .  ,  .  .  .  ,  .  .  .  ,  .  .  .   

|24----------------19----------------19----------|
|------------------------------------------------|
|------------------------------------------------|
|------------------------------------------------|
|------------------------------------------------|
|------------------------------------------------|
 ,  .  .  .  ,  .  .  .  ,  .  .  .  ,  .  .  .   

 E
|------------------15----15----15----14----14----|
|12----12----12----------------------------------|
|------------------------------------------------|
|------------------------------------------------|
|------------------------------------------------|
|------------------------------------------------|
 ,  .  .  .  ,  .  .  .  ,  .  .  .  ,  .  .  .   

|------------------------------------------------|
|13----13----13----15----15----15----13----13----|
|------------------------------------------------|
|------------------------------------------------|
|------------------------------------------------|
|------------------------------------------------|
 ,  .  .  .  ,  .  .  .  ,  .  .  .  ,  .  .  .   

A x7
B x3
A x3
B x3
C x3
D
B x3
Guitar solo
E x10
C x3
D
B until end

     
Добавлено: 13.09.2013
Другие материалы по этой песне:
  • Аккорды и текст

Страница создана 24.02.2012
http://primanota.ru/saviour-machine/enter-the-idol-chords.htm
Привет, Гость.
Предлагаем пройти революционный курс по гитаре.
Подарок от PrimaNota.Ru, забирай!