PrimaNota.ru - самый крупный в мире бесплатный архив песенных текстов, аккордов, табулатур и нот


Saviour Machine - Christians And Lunatics - текст песни, таба, видео

Регистрация Запомнить меня
Войти через:  Facebook Google Twitter Vk Yandex Mail.ru

Saviour Machine - Christians And Lunatics - текст песни, таба, видео

Печатать
Просмотров: 99
Уроки эстрадного вокала в Санкт-Петербурге
		   "Christians and Lunatics"
by: Saviour Machine
album: Saviour Machine
written by: Saviour Machine
from: kpaju@sci.fi (Kalle Paju)
(C) Malineum Productions (ASCAP)


This song is one of my favourites and it's also
one of the first transcriptions I've ever made.
I hope you enjoy it.



 A
|------------------------------------------------|
|------------------------------------------------|
|------------------------------------------------|
|------------------------------------------------|
|9-----------------------------------------------|
|7-----7--7--8--8--5--5--7--7--3--3--5--5--2--2--|
 ,  .  .  .  ,  .  .  .  ,  .  .  .  ,  .  .  .

|------------------------------------------------|
|------------------------------------------------|
|------------------------------------------------|
|------------------------------------------------|
|4-----------5-----------2-----------4-----------|
|2-----------3-----------0-----------2-----------|
 ,  .  .  .  ,  .  .  .  ,  .  .  .  ,  .  .  . 

|------------------------------------------------|
|------------------------------------------------|
|------------------------------------------------|
|------------------------------------------------|
|------------------------------------------------|
|7--7--7--7--5--5--8--8--8--8--8--8--5-----8-----|
 ,  .  .  .  ,  .  .  .  ,  .  .  .  ,  .  .  .

|------------------------------------------------|
|-----------------------------------------------.|
|------------------------------------------------|
|------------------------------------------------|
|-----------------------------------------------.|
|7--7--7--7--5--5--8--8--8--8--8--8--5-----8-----|
 ,  .  .  .  ,  .  .  .  ,  .  .  .  ,  .  .  .

 B
|------------------------------------------------|
|------------------------------------------------|
|------------------------------------------------|
|------------------------------------------------|
|9-----------------------------------------------|
|7-----7--7--8--8--5--5--7--7--3--3--5--5--2--2--|
 ,  .  .  .  ,  .  .  .  ,  .  .  .  ,  .  .  .

|------------------------------------------------|
|------------------------------------------------|
|------------------------------------------------|
|------------------------------------------------|
|4-----------5-----------2-----------4-----------|
|2-----------3-----------0-----------2-----------|
 ,  .  .  .  ,  .  .  .  ,  .  .  .  ,  .  .  .

 C
|------------------------------------------------|
|------------------------------------------------|
|------------------------------------------------|
|------------------------------------------------|
|------------------------------------------------|
|0--0--0--0--7--0--0--7--0--0--7--0--7--8--8--8--|
 ,  .  .  .  ,  .  .  .  ,  .  .  .  ,  .  .  .

|------------------------------------------------|
|------------------------------------------------|
|------------------------------------------------|
|------------------------------------------------|
|------------------------------------------------|
|0--0--0--0--7--0--0--7--0--0--7--0--7--7--7--8--|
 ,  .  .  .  ,  .  .  .  ,  .  .  .  ,  .  .  .


 D
|------------------------------------------------|
|------------------------------------------------|
|------------------------------------------------|
|------------------------------------------------|
|10----------------------7-----------------------|
|8-----------------------5-----------------------|
 ,  .  .  .  ,  .  .  .  ,  .  .  .  ,  .  .  .

|------------------------------------------------|
|------------------------------------------------|
|------------------------------------------------|
|------------------------------------------------|
|2-----------------------5-----------------------|
|0-----------------------3-----------------------|
 ,  .  .  .  ,  .  .  .  ,  .  .  .  ,  .  .  .

|------------------------------------------------|
|------------------------------------------------|
|------------------------------------------------|
|7-----------------------------------------------|
|5-----------------------4-----------------------|
|------------------------2-----------------------|
 ,  .  .  .  ,  .  .  .  ,  .  .  .  ,  .  .  .

 E
|------------------------------------------------|
|------------------------------------------------|
|------------4-----------------------4-----------|
|2-----------------------5-----------------------|
|------------------------------------------------|
|------------------------------------------------|
|,  .  .  .  ,  .  .  .  ,  .  .  .  ,  .  .  .  |
|------------------------------------------------|
|------------------------------------------------|
|------------------------------------------------|
|------------------------------------------------|
|2-----------------------------------------------|
|0-----------------------------------------------|
 ,  .  .  .  ,  .  .  .  ,  .  .  .  ,  .  .  .

|------------------------------------------------|
|------------------------------------------------|
|------------------------------------------------|
|4-----------------------------------------------|
|------------------------------------------------|
|------------------------------------------------|
|,  .  .  .  ,  .  .  .  ,  .  .  .  ,  .  .  .  |
|------------------------------------------------|
|------------------------------------------------|
|------------------------------------------------|
|------------------------------------------------|
|4-----------------------------------------------|
|2-----------------------------------------------|
 ,  .  .  .  ,  .  .  .  ,  .  .  .  ,  .  .  .

|------------------------------------------------|
|------------------------------------------------|
|------------4-----------------------4-----------|
|5-----------------------5-----------------------|
|------------------------------------------------|
|------------------------------------------------|
|,  .  .  .  ,  .  .  .  ,  .  .  .  ,  .  .  .  |
|------------------------------------------------|
|------------------------------------------------|
|------------------------------------------------|
|------------------------------------------------|
|5-----------------------------------------------|
|3-----------------------------------------------|
 ,  .  .  .  ,  .  .  .  ,  .  .  .  ,  .  .  .

|------------------------------------------------|
|------------------------------------------------|
|6-----------------------------------------------|
|------------------------------------------------|
|------------------------------------------------|
|------------------------------------------------|
|,  .  .  .  ,  .  .  .  ,  .  .  .  ,  .  .  .  |
|------------------------------------------------|
|------------------------------------------------|
|------------------------------------------------|
|------------------------------------------------|
|4-----------------------------------------------|
|2-----------------------------------------------|
 ,  .  .  .  ,  .  .  .  ,  .  .  .  ,  .  .  .

 F
|------------------------------------------------|
|------------------------------------------------|
|------------6-----7-----9-----7-----6-----7-----|
|9-----9-----------------------------------------|
|------------------------------------------------|
|------------------------------------------------|
|,  .  .  .  ,  .  .  .  ,  .  .  .  ,  .  .  .  |
|------------------------------------------------|
|------------------------------------------------|
|------------------------------------------------|
|------------------------------------------------|
|9-----------------------------------------------|
|7-----------------------------------------------|
 ,  .  .  .  ,  .  .  .  ,  .  .  .  ,  .  .  .

|------------------------------------------------|
|------------------------------------------------|
|------7-----6-----7-----9-----7-----6--7--6-----|
|------------------------------------------------|
|------------------------------------------------|
|------------------------------------------------|
|,  .  .  .  ,  .  .  .  ,  .  .  .  ,  .  .  .  |
|------------------------------------------------|
|------------------------------------------------|
|------------------------------------------------|
|7-----------------------------------------------|
|5-----------------------------------------------|
|------------------------------------------------|
 ,  .  .  .  ,  .  .  .  ,  .  .  .  ,  .  .  .

|------------------------------------------------|
|------------------------------------------------|
|------6-----------7-----9-----7-----676---------|
|------------------------------------------9-----|
|------------------------------------------------|
|------------------------------------------------|
|,  .  .  .  ,  .  .  .  ,  .  .  .  ,  .  .  .  |
|------------------------------------------------|
|------------------------------------------------|
|------------------------------------------------|
|------------------------------------------------|
|7-----------------------------------------------|
|5-----------------------------------------------|
 ,  .  .  .  ,  .  .  .  ,  .  .  .  ,  .  .  .

|------------------------------------------------|
|------------------------------------------------|
|------------6-----7-----9-----7-----6-----7-----|
|------9-----------------------------------------|
|------------------------------------------------|
|------------------------------------------------|
|,  .  .  .  ,  .  .  .  ,  .  .  .  ,  .  .  .  |
|------------------------------------------------|
|------------------------------------------------|
|------------------------------------------------|
|------------------------------------------------|
|9-----------------------------------------------|
|7-----------------------------------------------|
 ,  .  .  .  ,  .  .  .  ,  .  .  .  ,  .  .  .

 Guitar solo
|------------------------------------------------|
|------------------------------------------------|
|------------------------------------------6-----|
|9-----------------------------------9-----------|
|------------------------------------------------|
|------------------------------------------------|
 ,  .  .  .  ,  .  .  .  ,  .  .  .  ,  .  .  .

|------------------------------------------------|
|------------------------------------------------|
|7-----------------------------------9-----------|
|------------------------------------------------|
|------------------------------------------------|
|------------------------------------------------|
 ,  .  .  .  ,  .  .  .  ,  .  .  .  ,  .  .  .

|------------------------------------------------|
|------------------------------------------------|
|6--------------------------------------------6-7|
|------------------------------------------------|
|------------------------------------------------|
|------------------------------------------------|
 ,  .  .  .  ,  .  .  .  ,  .  .  .  ,  .  .  .

|------------------------------------------------|
|------------------------------------------------|
|9-----7-----6-----------7-----6-----------6-----|
|------------------------------------9-----------|
|------------------------------------------------|
|------------------------------------------------|
 ,  .  .  .  ,  .  .  .  ,  .  .  .  ,  .  .  .

|------------------------------------------------|
|------------------7-----------------------------|
|------------------------------------9-----------|
|9-----------------------------------------------|
|------------------------------------------------|
|------------------------------------------------|
 ,  .  .  .  ,  .  .  .  ,  .  .  .  ,  .  .  .

|------------------------------------------------|
|------------------------------------7-----------|
|7-----------------9-----------------------------|
|------------------------------------------------|
|------------------------------------------------|
|------------------------------------------------|
 ,  .  .  .  ,  .  .  .  ,  .  .  .  ,  .  .  .

|------------------------------------------------|
|------------------------------------------------|
|9-----------------------------------------------|
|------------------------------------------------|
|------------------------------------------------|
|------------------------------------------------|
 ,  .  .  .  ,  .  .  .  ,  .  .  .  ,  .  .  .

|------------------------------------------------|
|------------------------------------------------|
|7-----------------6-----------------7-----------|
|------------------------------------------------|
|------------------------------------------------|
|------------------------------------------------|
 ,  .  .  .  ,  .  .  .  ,  .  .  .  ,  .  .  .

|------------------------------------------------|
|--------------------------------7-------7---8---|
|----6---7---6---7---9---7---9-------9-----------|
|9-----------------------------------------------|
|------------------------------------------------|
|------------------------------------------------|
 ,  .  .  .  ,  .  .  .  ,  .  .  .  ,  .  .  .

|------------------7-----------------------------|
|7-----------------------------------7-----------|
|------------------------------------------------|
|------------------------------------------------|
|------------------------------------------------|
|------------------------------------------------|
 ,  .  .  .  ,  .  .  .  ,  .  .  .  ,  .  .  .

|------------------------------------------------|
|------------------------------------7-----------|
|9-----------------------------------------------|
|------------------------------------------------|
|------------------------------------------------|
|------------------------------------------------|
 ,  .  .  .  ,  .  .  .  ,  .  .  .  ,  .  .  .

|------------------------------------10----------|
|7-----------------8-----------------------------|
|------------------------------------------------|
|------------------------------------------------|
|------------------------------------------------|
|------------------------------------------------|
 ,  .  .  .  ,  .  .  .  ,  .  .  .  ,  .  .  .

|------------------------------------10----------|
|7-----------------8-----------------------------|
|------------------------------------------------|
|------------------------------------------------|
|------------------------------------------------|
|------------------------------------------------|
 ,  .  .  .  ,  .  .  .  ,  .  .  .  ,  .  .  .

|12----------------10----------------9-----------|
|------------------------------------------------|
|------------------------------------------------|
|------------------------------------------------|
|------------------------------------------------|
|------------------------------------------------|
 ,  .  .  .  ,  .  .  .  ,  .  .  .  ,  .  .  .

|9-----------------------------------------------|
|------------------------------------------------|
|------------------------------------------------|
|------------------------------------------------|
|------------------------------------------------|
|------------------------------------------------|
 ,  .  .  .  ,  .  .  .  ,  .  .  .  ,  .  .  .

|9--10-9-----7--9--7-----------------10----------|
|------------------------8-----------------------|
|------------------------------------------------|
|------------------------------------------------|
|------------------------------------------------|
|------------------------------------------------|
 ,  .  .  .  ,  .  .  .  ,  .  .  .  ,  .  .  .

|------------------------------------10----------|
|7-----------------8-----------------------------|
|------------------------------------------------|
|------------------------------------------------|
|------------------------------------------------|
|------------------------------------------------|
 ,  .  .  .  ,  .  .  .  ,  .  .  .  ,  .  .  .

|12----------------10----------------9-----------|
|------------------------------------------------|
|------------------------------------------------|
|------------------------------------------------|
|------------------------------------------------|
|------------------------------------------------|
 ,  .  .  .  ,  .  .  .  ,  .  .  .  ,  .  .  .

|12----------------------------------------------|
|------------------------------------------------|
|------------------------------------------------|
|------------------------------------------------|
|------------------------------------------------|
|------------------------------------------------|
 ,  .  .  .  ,  .  .  .  ,  .  .  .  ,  .  .  .

|10-12-10----9--10-9-----7-----------9-----------|
|------------------------------------------------|
|------------------------------------------------|
|------------------------------------------------|
|------------------------------------------------|
|------------------------------------------------|
 ,  .  .  .  ,  .  .  .  ,  .  .  .  ,  .  .  .

|7--9--7-----------------------------------------|
|------------7--8--7-----------7-----------------|
|------------------------9-----------9-----------|
|------------------------------------------------|
|------------------------------------------------|
|------------------------------------------------|
 ,  .  .  .  ,  .  .  .  ,  .  .  .  ,  .  .  .

|------------------------------------------------|
|----7-------------------------------------------|
|9-------9---7---9---7---6-----------------------|
|------------------------------------------------|
|------------------------------------------------|
|------------------------------------------------|
 ,  .  .  .  ,  .  .  .  ,  .  .  .  ,  .  .  .

|------------------------------------------------|
|------------------------------------7-----------|
|6-----------9-----------7--9--7--9--------------|
|------------------------------------------------|
|------------------------------------------------|
|------------------------------------------------|
 ,  .  .  .  ,  .  .  .  ,  .  .  .  ,  .  .  .

|------------------------------------------------|
|----7-------------------------------------------|
|9-------9---7---9---7---6-----------------------|
|------------------------------------8-----------|
|------------------------------------------------|
|------------------------------------------------|
 ,  .  .  .  ,  .  .  .  ,  .  .  .  ,  .  .  .

|7-----------------------------------------------|
|------------7--8--7-----------7-----------------|
|------------------------9-----------7-----------|
|------------------------------------------------|
|------------------------------------------------|
|------------------------------------------------|
 ,  .  .  .  ,  .  .  .  ,  .  .  .  ,  .  .  .

|------------------------------------------------|
|------------------------------------------------|
|7--9--7-----6--7--6-----------------------------|
|------------------------7-----------------------|
|------------------------------------------------|
|------------------------------------------------|
 ,  .  .  .  ,  .  .  .  ,  .  .  .  ,  .  .  .

|------------------------------------------------|
|------------------------------------------------|
|------------------------------------------------|
|------------------------------------------------|
|9-----10-9--7--9--7-----7--9--7--5--7-----------|
|------------------------------------------------|
 ,  .  .  .  ,  .  .  .  ,  .  .  .  ,  .  .  .

|------------------------------------------------|
|------------------------------------------------|
|------------------------------------------------|
|------------------------------------------------|
|5--7--5-----4--5--4-----2-----------4-----------|
|------------------------------------------------|
 ,  .  .  .  ,  .  .  .  ,  .  .  .  ,  .  .  .

|------------------------------------------------|
|------------------------------------------------|
|------------------------------------------------|
|------------------------------------------------|
|9-----------------------------------------------|
|7-----7--7--8--8--5--5--7--7--3--3--5--5--2--2--|
 ,  .  .  .  ,  .  .  .  ,  .  .  .  ,  .  .  .

|------------------------------------------------|
|------------------------------------------------|
|------------------------------------------------|
|------------------------------------------------|
|4-----------5-----------2-----------4-----------|
|2-----------3-----------0-----------2-----------|
 ,  .  .  .  ,  .  .  .  ,  .  .  .  ,  .  .  .

 G
|------------------------------------------------|
|------------------------------------------------|
|------------------------------------------------|
|------------------------------------------------|
|2-----------------------------------------------|
|0-----------------------------------------------|
 ,  .  .  .  ,  .  .  .  ,  .  .  .  ,  .  .  .

|------------------------------------------------|
|------------------------------------------------|
|------------------------------------------------|
|------------------------------------------------|
|(2)---------------------------------------------|
|(0)---------------------------------------------|
 ,  .  .  .  ,  .  .  .  ,  .  .  .  ,  .  .  .

|------------------------------------------------|
|------------------------------------------------|
|------------------------------------------------|
|------------------------------------------------|
|5-----------------------------------------------|
|3-----------------------------------------------|
 ,  .  .  .  ,  .  .  .  ,  .  .  .  ,  .  .  .

|------------------------------------------------|
|------------------------------------------------|
|------------------------------------------------|
|------------------------------------------------|
|4-----------------------------------------------|
|2-----------------------------------------------|
 ,  .  .  .  ,  .  .  .  ,  .  .  .  ,  .  .  .

A x2
B
C x4
D
C x4
D
E x5
F x4
Guitar solo
G x6
E x5
F x10
B
     
Добавлено: 04.12.2013
Другие материалы по этой песне:
  • Аккорды и текст

Страница создана 17.04.2012
http://primanota.ru/saviour-machine/christians-and-lunatics-chords.htm
Привет, Гость.
Предлагаем пройти революционный курс по гитаре.
Подарок от PrimaNota.Ru, забирай!