PrimaNota.ru - самый крупный в мире бесплатный архив песенных текстов, аккордов, табулатур и нот


Saves The Day - Houses & Billboards - аккорды и текст, бас-таба, видео

Регистрация Запомнить меня
Войти через:  Facebook Google Twitter Vk Yandex Mail.ru

Saves The Day - Houses & Billboards - аккорды и текст, бас-таба, видео

Печатать
Просмотров: 104
Houses & Billboards
Saves The Day
  C5  F5  E5  F  E   G   A5  B5
e------------------------------|
B------------------------------|
G--5--10--9--------------2---4-|
D--5--10--9--3---2---5---2---4-|
A--3--8---7--3---2---5---0---2-|
E------------1---0---3---------|


Intro chords:

C5 - F5 - E5 - F - E - G


C5        F5       E5      F        E        G5
Remember that last Friday before we left for Mexico?
C5            F5      E5     F  E  G5
we kissed and nothing seemed to matter
     C5   B5  E5 F5  E5     F
like Billie Holiday might sing
F
and it rained and
C5  B5        E5       F5  E5       F
everything was going to be just fine-

RIFF:
e----------------------|
B----------------------|
G--2--------------5----|
D--2--3--2--3--2--5----|
A--0--3--2--3--2--3----|
E-----1--0--1--0 ------|

C5
it was like music-

e----------------------|
B----------------------|
G--2--------------5----|
D--2--3--3--3--3--5----|
A--0--3--3--3--3--3----|
E-----1--0--1--0 ------|


C5      F5   E5  F          E   G5
and it makes me sad to know I had
C5           F5   E5       F           E     G5
gotten into something that I could not deal with
     C5
and I will
          F                   C5
sit in my room and sleep all day
C5             F   G5
and think up dreams
C5     G5         A5          F
like I am the cutest kid in school
   C5           G5      A5         F
or I could be crazy and sing about memories-

C5 - F5 C5 - F5

C5                     F5
hey I remember when I sat on those steps watching the moon
C5                    F5                  C5
chase the sky back until the world seemed like it would explode
             F5
and I could picture going up with it
    C5                            F5
it'd be just how I'd like to go and I'd sing.

e-------------------------------------------|
B-------------------------------------------|
G--5----------------------------------5~~~~-|
D--5---2h3p2----2h3p2---2h3----3--2---5~~~~-|
A--3---------3--------3--------3--3---3~~~~-|
E------------------------------1--1---------|
Добавлено: 24.06.2016
Другие материалы по этой песне:
  • Аккорды и текст

Страница создана 27.02.2012
http://primanota.ru/saves-the-day/houses-and-billboards-chords.htm
Привет, Гость.
Предлагаем пройти революционный курс по гитаре.
Подарок от PrimaNota.Ru, забирай!