PrimaNota.ru - самый крупный в мире бесплатный архив песенных текстов, аккордов, табулатур и нот


Saves The Day - A Drag In D Flat - текст песни, таба, бас-таба, видео

Регистрация Запомнить меня
Войти через:  Facebook Google Twitter Vk Yandex Mail.ru

Saves The Day - A Drag In D Flat - текст песни, таба, бас-таба, видео

Печатать
Просмотров: 118
Уроки эстрадного вокала в Санкт-Петербурге
-------------------------------------------------------------------------------
                             A Drag In D flat (acoustic) - Saves The Day 
-------------------------------------------------------------------------------
Tabbed by: danny boi 
Email: trashkans@hotmail.com

Tuning: half step down. 

This song is found on "Bug Sessions: Volume 3". 
Im a new fan and i couldnt find a tab for this song on UG so i thought i'd do it myself.

Rythm: Just strum to this, if you have heard the song you should be fine with figuring it out.
lead: he uses the D# major scale, just play around and have fun.(chuck in a few octaves too)

Intro: 

     C#m      G#m       A         E      B    
eb|--4--------4--------5--------0--0--x--x----------------------------------|
Bb|--5--------4--------5--------0--0--4--4----------------------------------|
Gb|--6--------4--------6--------1--1--4--4----------------------------------|
Db|--6--------6--------7--------2--2--4--4----------------------------------|
Ab|--4--------6--------7--------2--2--2--2----------------------------------|
Eb|--x--------4--------5--------0--0--x--x----------------------------------|
  
Verse1: (x2)

     C#m      G#m       A         E      B    
eb|--4--------4--------5--------0--0--x--x----------------------------------|
Bb|--5--------4--------5--------0--0--4--4----------------------------------|
Gb|--6--------4--------6--------1--1--4--4----------------------------------|
Db|--6--------6--------7--------2--2--4--4----------------------------------|
Ab|--4--------6--------7--------2--2--2--2----------------------------------|
Eb|--x--------4--------5--------0--0--x--x----------------------------------|
 "if every limb...                                             ...200 miles"

Chorus2: (x2)
                               
eb|--4--4--0-0-0-0-0-0-0--5--5--0-0-0-0-0-0-0------------------------------|
Bb|--5--5--4/5-5-5-5-5-5--5--5--4/5-5-5-5-5-5-------------------------------|
Gb|--6--6-----------------6--6------------------4------2------4-------------|
Db|--6--6-----------------7--7------------------4-(x8)-2-(x4)-4-(x4)--------|
Ab|--4--4-----------------7--7------------------2------0------2-------------|
Eb|--x--x-----------------5--5----------------------------------------------|
 "with just, my finger nails...                               ... ever lose"

-repeat verse and chorus twice- (strumming  becomes a little more intence)


Outro: (x2)
    C#m      A        B        A5   B
eb|--4--------5--------0-------------0--------------------------------------|
Bb|--5--------5--------0-------------0--------------------------------------|
Gb|--6--------6--------4--------2----4--------------------------------------|
Db|--6--------7--------4--------2----4--------------------------------------|
Ab|--4--------7--------2--------0----2--------------------------------------|
Eb|--x--------5--------x-------------x--------------------------------------|
 "i am not afraid...                               ...i've got time to kill"

End on C#m

Lyrics:
If every limb were broken, 
tires had all worn thin 
and my toes are all in pieces. 
Do you know 
what I would do? 
I would play can you drag yourself 
200 miles 
with just your fingernails? 
A little game that I made up. 
Do you know that I never ever lose? 
There is nothing to 
keep me from coming back to you 
cause I can picture all the pictures of you 
and me on your walls. 
What would it take to make you mine forever? 
Just your fingernails, 
a little game that I made up. 
Do you know, that I never ever lose? 
Could I cut out my liver, 
make a special potion 
to close my flat? 
Three parts my heart. 
Yeah, you know that I would do it in a second. 
With just my fingernails, 
a little game that I made up. 
Do you know that I never ever lose? 
I am not afraid of what it takes to glue you to my side 
even if it takes a little bleeding, so be it 
I would go without breathing and I don't have to justify it. 
You just watch me. I've got time to kill.

===============================================================================
Добавлено: 06.04.2012
Другие материалы по этой песне:
  • Аккорды и текст

Страница создана 24.03.2012
http://primanota.ru/saves-the-day/a-drag-in-d-flat-chords.htm
Привет, Гость.
Предлагаем пройти революционный курс по гитаре.
Подарок от PrimaNota.Ru, забирай!